top separator

Home

Forum

What's New

Submit a Tab

FAQ

Links

Contact Us

Link to Us

MuSpy.com

MetalTabs.com logo

Bands

0-9

A

B

C

D

E

F

G

H

I

J

K

L

M

N

O

P

Q

R

S

T

U

V

W

X

Y

Z

Search

What

Where
 

Sacrifice - "My Eyes See Red" Guitar Tab

Plain Text Version
More Sacrifice Tabs

Hits: 2786
Rated: 5.00 out of 5 (5 votes)
Updated: 2005-01-31 08:10:22

 

By:

sendpm.gif

email.gif

Important note
This tab is available online because we obtained explicit permission from Sacrifice or their label.


#----------------------------------PLEASE NOTE---------------------------------#
#This file is the author's own work and represents their interpretation of the #
#song. You may only use this file for private study, scholarship, or research. #
#Unless specified otherwise, this is NOT an official tab from the band members.#
#------------------------------------------------------------------------------#

  Visit MetalTabs.com for more metal tablature
  
Band:  (Sacrifice)
Album: (Apocalypse inside)
Song:  (my eyes see red)

Copyright (c)  (metal blade) (1993)
Version 1.0 - (Jan 30 2005)

Transcribed By: (overkill67)
Email:          (deerslayer1@shaw.ca)


.  - palm mute           /  - slide up to
\  - slide down to       ~  - vibrato
h  - hammer on           b  - Bend
p  - pull off            Suffixes for bend
t  - tap                 f  - full bend    h - half bend
ph - pinched harmonic    q  - quarter bend t - tap bend
*  - see comment         ^  - Hold bend    r release bend
x  - Stuccatto           ~  - vibrato bend
,  - slight palm mute    () - ghost note, sustained note
"  - tremolo note        <> - Trill

Tunning E A D G B E

|-------------------------------------------------------------------|
|-------------------------------------------------------------------|
|-------------5-----------------------------------------------------|
|-----2-------5-------7---5--------------------:-------2------------|
|-----2-------3-------5---3--5-------------------------2------------|
|-0-0-0---0-0-----0-0--------3--0--3-sl-6-vib------0-0-0------6-sl-8|

|-------------------------------------------------------------------|
|-------------------------------------------------------------------|
|-----------------------------------------------5-------------------|
|-----------------------------------------------5-------------------|
|----2---8--10-10-10-10---------2---------------3--------5-h  7-----|
|0-0-0---6---8-8---8-8------0-0-0-0-0-0-0-0-0-0------0-0---------0-0|

|------------------------------------------------------0---0--------|
|--------------------------------------------------------3----3---1-|
|-------------------------------------------------------------------|
|-------------------------------------------------- 2---------------|
|5-h-7-----3-h-5-----3-h-5-----2-h-3-----2-h-3----- 2---------------|
|------0-0-------0-0-------0-0-------0-0--------0-0-0-------------- |


|0-----0------------------------------------------------------------|
|--1-3---3----------------------------------------------------------|
|----------:--rythm guitar plays following chords----5--------------|
|-------------------------------------------------2--5--2--3--:-----|
|-------------------------------------------------2--3--2--3--------|
|-------------------------------------------------0-----0--1--------|

|-------------------------------------------------------------------|
|-------------------------------------------------------------------|
|-------------------------------------------------------------------|
|------------------------------------:--repeat 4 times--------------|
|-------------------------4-sl-5--4---------------------------------|
|-0-0-0-0-0-0-0-0-0-0-0-0-2-sl-3--2---------------------------------|

|-------------------------------------------------------------------|
|-------------------------------------------------------------------|
|-------------------------------------------------------------------|
|-hp--------hp------hp------hp---------2--:----7-5------------------|
|1-2-1----1-2-1---1-2-1----1-2-1-------2-----------8-7-8-5---5-7----|
|------3--------3-------3--------3-----0-------------------------6-0|

|-------------------------------------------------------------------|
|-------------------------------------------------------------------|
|-------------------------------------------------------------------|
|-:---7-5-----------------------------------------------------------|
|---------8-7-8-7-5-7-5----5----------------------------p---p---p---|
|------------------------8----8-6-5-6------8-6-0000000-6-0-6-0-6-0-6|

|-------------------------------------------------------------------|
|-------------------------------------------------------------------|
|----7----4--5--------------------------------------------------- --|
|2---7----4--5----5---3---------hp------hp-----hp------hp------:----|
|2---5----2--3----5---3-------1-2-1---1-2-1---1-2-1---1-2-1---------|
|0----------------3---1-------------3-------3-------3--------3------|

  Visit MetalTabs.com for more metal tablature

bottom separator

Contact Us | Privacy Policy | Disclaimer | Legal Notice
Copyright © 2001-2014 MetalTabs.com. All Rights Reserved.