top separator

Home

Forum

What's New

Submit a Tab

FAQ

Links

Contact Us

Link to Us

MuSpy.com

MetalTabs.com logo

Bands

0-9

A

B

C

D

E

F

G

H

I

J

K

L

M

N

O

P

Q

R

S

T

U

V

W

X

Y

Z

Search

What

Where
 

Darkside (AT) - "Cognitive Dissonance" Guitar Tab

Plain Text Version
More Darkside (AT) Tabs

Hits: 1853
Updated: 2005-01-31 06:06:08

 

By:

Zombie Clown

sendpm.gif

email.gif

Important note
This tab is available online because we obtained explicit permission from Darkside (AT) or their label.


#----------------------------------PLEASE NOTE---------------------------------#
#This file is the author's own work and represents their interpretation of the #
#song. You may only use this file for private study, scholarship, or research. #
#Unless specified otherwise, this is NOT an official tab from the band members.#
#------------------------------------------------------------------------------#

  Visit MetalTabs.com for more metal tablature
  
Band: Darkside
Album: Cognitive Dissonance

Copyright (c)  (Season of Mist) (2001)
Version 1.0 - (2005)

Transcribed By: Zombie Clown
Email:          bobnoboborjimnobobgoat@yahoo.com


.  - palm mute           /  - slide up to
\  - slide down to       ~  - vibrato
h  - hammer on           b  - Bend
p  - pull off            Suffixes for bend
t  - tap                 f  - full bend    h - half bend
ph - pinched harmonic    q  - quarter bend t - tap bend
*  - see comment         ^  - Hold bend    r release bend
x  - Stuccatto           ~  - vibrato bend
,  - slight palm mute    () - ghost note, sustained note
"  - tremolo note        <> - Trill

Tunning E A D G B E

intro

guitar 1

|----------|-----------|----------|---------------|
|----------|-----------|----------|---------------|
|----------|-----------|----------|---------------|
|----------|-----------|-8--------|-3h4-----------|
|----------|-----------|----------|---------------|
|----------|-----------|----------|---------------|

|----------|-----------|----------|-14bh~--12-14~-|
|----------|-----------|----------|---------------|
|----------|-----------|----------|---------------|
|----------|-----------|----------|---------------|
|----------|-----------|----------|---------------|
|----------|-----------|----------|---------------|

guitar 2

|----------|-----------|----------|---------------|
|----------|-----------|----------|---------------|
|----------|-----------|----------|---------------|
|-5--------|-4---------|----------|---------------|
|-3--------|-2---------|-5--------|-3-------------|
|----------|-----------|-3--------|-1-------------|

lead in to intro 2nd time

both guitars

|-------------|
|-------------|
|-------------|
|-------------|
|-2--3--5--6--|
|-0--1--3--4--|

intro 2nd time

both guitars

|-----------------|-----------------|-----------------|
|-----------------|-----------------|-----------------|
|-----------------|-----------------|-----------------|
|-5-5-5-5-5-5-5-5-|-5-5-5-5-5-5-5-5-|-4-4-4-4-4-4-4-4-|
|-3-3-3-3-3-3-3-3-|-3-3-3-3-3-3-3-3-|-2-2-2-2-2-2-2-2-|
|-----------------|-----------------|-----------------|

|-----------------|-----------------|-----------------|
|-----------------|-----------------|-----------------|
|-----------------|-----------------|-----------------|
|-4-4-4-4-4-4-4-4-|-----------------|-----------------|
|-2-2-2-2-2-2-2-2-|-5-5-5-5-5-5-5-5-|-5-5-5-5-5-5-5-5-|
|-----------------|-3-3-3-3-3-3-3-3-|-3-3-3-3-3-3-3-3-|

|-----------------|-----------------|-----------------|
|-----------------|-----------------|-----------------|
|-----------------|-----------------|-----------------|
|-----------------|-----------------|-----------------|
|-----------------|-----------------|-5-5-5-5-5-5-5-5-|
|-3-3-3-3-3-3-3-3-|-3-3-3-3-3-3-3-3-|-3-3-3-3-3-3-3-3-|
|-1-1-1-1-1-1-1-1-|-1-1-1-1-1-1-1-1-|-----------------|

|-----------------|-----------------|-----------------|
|-----------------|-----------------|-----------------|
|-----------------|-----------------|-----------------|
|-5-5-5-5-5-5-5-5-|-9-9-9-9-9-9-9-9-|-9-9-9-9-9-9-9-9-|
|-3-3-3-3-3-3-3-3-|-7-7-7-7-7-7-7-7-|-7-7-7-7-7-7-7-7-|
|-----------------|-----------------|-----------------|

|-----------------|-----------------|-----------------|
|-----------------|-----------------|-----------------|
|-----------------|-----------------|-----------------|
|-----------------|-----------------|-----------------|
|-5-5-5-5-5-5-5-5-|-5-5-5-5-5-5-5-5-|-3-3-3-3-3-3-3-3-|
|-3-3-3-3-3-3-3-3-|-3-3-3-3-3-3-3-3-|-1-1-1-1-1-1-1-1-|

|-----------------|
|-----------------|
|-----------------|
|-----------------|
|-3-3-3-3-3-3-3-3-|
|-1-1-1-1-1-1-1-1-|

verse

both guitars

|-------------------------|-------------------------|
|-------------------------|-------------------------|
|-------------------------|-------------------------|
|----------------3"-2"----|----------------3"-2"----|
|----------2"-1"-------3"-|----------2"-1"----------|
|-0"-2"-3"----------------|-0"-2"-3"----------------|

prechorus

both guitars

|-----------------------------|
|-----------------------------|
|-----------------------------|
|-----------------------------|
|-7---7---7/9---7-7---7---7---|
|-5---5---5/7---5-5---5---5---|
    .   .     .     .   . x*
*the palm muting comes a little bit after the note is played

prechorus 2

guitar 1

|-----------|---------|-----------|----------|------------|--------|---------|
|-----------|---------|-----------|----------|------------|--------|-9---6h7-|
|-----------|---------|-----------|----------|------------|--------|---------|
|-----------|---------|-9-----9p7-|-6--------|------------|--------|---------|
|-9-----9p7-|-6-------|-----------|----------|-9------9p7-|-6------|---------|
|-----------|---------|-----------|----------|------------|--------|---------|

|------|
|-12---|
|------|
|------|
|------|
|------|

guitar 2

|--------|--------|     |-------|-------|
|--------|--------|     |-------|-------|
|--------|--------| x3  |-------|-------|
|--------|--------|     |-------|-5-----|
|-7------|-5------|     |-7-----|-3-----|
|-5------|-3------|     |-5-----|-------|

chorus

both guitars
                                                   1
|-----------------------------|---------------:||-----------------|
|-----------------------------|---------------:||-----------------|
|-----------------------------|---------------:||-----------------|
|-----------------------------|---------------:||-----------------|
|-1-1--1-1-1--1-1-1--1-1-1--1-|-1-1--1-1-1--1-:||-0-0-0-0-0-0-0-0-|
|-1-1--1-1-1--1-1-1--1-1-1--1-|-1-1--1-1-1--1-:||-0-0-0-0-0-0-0-0-|
                                                  . . . . . . . .
        2
|-12--10-10-10-10-10-10-|
|-----------------------|
|-----------------------|
|-----------------------|
|-----------------------|
|-----------------------|

|------------|
|------------|
|------------|
|------------|
|-3-----5----|
|-1-----3----|

solo
i probably have this very wrong, be ye warned
guitar 1

|-------------------------------|-----------------------------------------|
|-------------------------------|-----------------------------------------|
|-------------12-------------12-|-12-10-9----9----------------------------|
|-10-12-13-15----10-12-13-15----|---------12---12-10-9-7-10-9-7-6-9-8-6-5-|
|-------------------------------|-----------------------------------------|
|-------------------------------|-----------------------------------------|

|--------------|-------------------------------|-------------------------------|
|--------------|-------------------------------|-------------------------------|
|--------------|-------------------------------|-------------------------------|
|--------------|-9p6-6-6-9p6-6-6-9p6-6-9p6-6-6-|-9p6-6-6-9p6-6-6-9p6-6-9p6-6-6-|
|-9bh~---------|-------------------------------|-------------------------------|
|-----7-9-6-7~-|-------------------------------|-------------------------------|

|-------||:----------------------12-14-15-14-12--------------:||
|-------||:----------------12-14----------------14-12--------:||
|-------||:-10-12-15-12-15----------------------------15-12~-:||
|-12p10-||:--------------------------------------------------:||
|-------||:--------------------------------------------------:||
|-------||:--------------------------------------------------:||

|-------||:----------------------17-19-20-19-17--------------:||
|-------||:----------------17-19----------------19-17--------:||
|-------||:-15-17-19-17-19----------------------------20-17~-:||
|-17p15-||:--------------------------------------------------:||
|-------||:--------------------------------------------------:||
|-------||:--------------------------------------------------:||

|-------||:----------------------16-18-19-18-16--------------:||
|-------||:----------------16-18----------------18-16--------:||
|-------||:-14-16-18-16-18----------------------------19-16~-:||
|-16p14-||:--------------------------------------------------:||
|-------||:--------------------------------------------------:||
|-------||:--------------------------------------------------:||

|-------||:----------------------15-17-18-17-15--------------:||
|-------||:----------------15-17----------------17-15--------:||
|-------||:-13-15-17-15-17----------------------------18-15~-:||
|-15p13-||:--------------------------------------------------:||
|-------||:--------------------------------------------------:||
|-------||:--------------------------------------------------:||

|-15-----------------------------------|
|----12h15p12--12-12----------12bq~----|
|--------------------15-12-------------|
|--------------------------15----------|
|--------------------------------------|
|--------------------------------------|

guitar 2

|----|----|----|----|
|----|----|----|----|
|----|----|----|----|
|-5--|-4--|----|----|
|-3--|-2--|-5--|-3--|
|----|----|-3--|-1--|
play these notes with palmmuted sixteenths (i only did this to save space)

  Visit MetalTabs.com for more metal tablature

bottom separator

Contact Us | Privacy Policy | Disclaimer | Legal Notice
Copyright © 2001-2014 MetalTabs.com. All Rights Reserved.