top separator

Home

Forum

What's New

Submit a Tab

FAQ

Links

Contact Us

Link to Us

MetalTabs.com logo

Bands

0-9

A

B

C

D

E

F

G

H

I

J

K

L

M

N

O

P

Q

R

S

T

U

V

W

X

Y

Z

Search

What

Where
 

Immortal - "Within the dark Mind" Guitar Tab

Plain Text Version
More Immortal Tabs

Hits: 6208
Rated: 3.00 out of 5 (5 votes)
Updated: 2005-01-31 05:56:51

 

By:

sendpm.gif

email.gif

Important note
We did our best to reach Immortal and ask for their permission to publish this tab. Unfortunately they did not respond to our requests or we could not find a way to contact them. This tab is available online until Immortal tells us to take it down.


#----------------------------------PLEASE NOTE---------------------------------#
#This file is the author's own work and represents their interpretation of the #
#song. You may only use this file for private study, scholarship, or research. #
#Unless specified otherwise, this is NOT an official tab from the band members.#
#------------------------------------------------------------------------------#

  Visit MetalTabs.com for more metal tablature
  
Band:  Immortal
Album: Sons of Northern Darkness
Song:  Within the Dark Mind

Copyright (c) (Nuclear Blast) (2002)
Version 1.0 - (01/24/05)

Transcribed By: Daniel
Email:          corpse_gutter@msn.com


.  - palm mute           /  - slide up to
\  - slide down to       ~  - vibrato
h  - hammer on           b  - Bend
p  - pull off            Suffixes for bend
t  - tap                 f  - full bend    h - half bend
ph - pinched harmonic    q  - quarter bend t - tap bend
*  - see comment         ^  - Hold bend    r release bend
x  - Stuccatto           ~  - vibrato bend
,  - slight palm mute    () - ghost note, sustained note
"  - tremolo note        <> - Trill

Tunning D G C F A D


This is the first tab I did so it might look a bit fucked up I didn’t add how
many times to play the riffs or when to mute and shit cause this song is
straight forward and I m to lazy to. Only one guitar is tabbed out.Most of
it sounds fuck n close to how its played but some of it might be off.
If u got corrections for this shit send it. This song is fucked enjoy
Hail IMMORTAL(R.I.P) \m/




Riff 1
|-------------------------------------------------3---3-----|
|---------------------------------------------------3---5---|
|---------------5-55-55-5555---------------5-55-------5---5-|
|2-22-22-2222---5-55-55-5555--2-22-22-2222-5-55-------------|
|2-22-22-2222---3-33-33-3333--2-22-22-2222-3-33-333---------|
|0-00-00-0000---3-33-33-3333--0-00-00-0000------------------|


|--------------------------------------------------------|
|--------------------------------------------------------|
|---------------5-55-55-5555-----------------------------|
|2-22-22-2222---5-55-55-5555--2-22-22-2222--4-44-44-4444-|
|2-22-22-2222---3-33-33-3333--3-33-33-3333--5-55-55-5555-|
|0-00-00-0000---3-33-33-3333-----------------------------|




Riff 2
|---------------------------|---------------------------|
|---------------------------|---------------------------|
|---------------------------|---------------------------|
|---------------------------|---------------------------|
|-------------------------7-|-------2h3p2-------5555333-|
|777-0-777-0-101010-0-888-8-|-3-333-------5-555---------|
repeat 3x                            play after 3rd time



Riff 3
|----------------------------------------------------------------|
|----------------------------------------------------------------|
|--------------------------------------4-44-44-4444--------------|
|9-99-999999-99-11-111111-111111111111-4-44-44-4444-2-22-22222---|
|7-77-777777-77/9—-9-9-9—-9-9-9-9-9-9\-2-22-22-2222-3-33-33333---|
|--------------------------------------2-22-22-2222--------------|
its something like this I didn’t put the exact amount of times they play
the power chords cause it sounds like it changes everytime but the notes are
right


Riff 4                                           1st ending
|-----------------------------|-----------------------------|
|-----------------------------|-----------------------------|
|9--11-10---------------------|-9--11--10-------------------|
|9--11-10---------------------|-9--11--10-------8-----------|
|7--9---8---------------------|-7--9---8--------6-----------|
|7/-9\--8---000000-0-0-0-0-0-0|-7/-9\--8-000000-6-000-6-5-3-|


2nd ending
|-------------------------|
|-------------------------|
|-9--11--10---------------|
|-9--11--10-------8-----8-|
|-7--9---8--------6-----6-|
|-7\-9/--8-000000-6-000-6-|



Riff5
|------------------------------|
|------------------------------|
|---0--0---0--0---2--2---3--3--|
|--0--0---0--0---4--4---5--5---|
|-2--2---1--1---5--5---5--5----|
|3--3---2--2---5--5---6--6-----|
its close to what the fuck they play



Riff6  repeat 2
|-------------------------------------------|--------|
|-------------------------------------------|--------|
|-------------------------------------------|--------|
|-------------------------------------------|--------|
|-------------------------------------------|--------|
|666666-6-6-6-6-6-6-6--555555-5-5-5-5-5-5-5—|-2ah~---|


|-------------------------|
|-------------------------|
|-------------------------|
|4-444444-----------------|
|4-444444-5-5555-5-5-7-5--|
|5-555555—6-6666-6-6-8-6--|


play last time
|-----------------------------|
|-----------------------------|
|-----------------------------|
|-----------------------------|
|-----------------------------|
|6666666666666--5555555555555—|

|-------------------------|
|-------------------------|
|-------------------------|
|4-444444-----------------|
|4-444444-5-5555-5-5-7-5--|
|5-555555—6-6666-6-6-8-6--|


Riff 7a
|-----------------------|----------------------------------------|
|-----------------------|----------------------------------------|
|-----------------------|----------------------------------------|
|10---10---10---10----6-|-777-7-777-7-777-77-7--9-6--10----9-----|
|8----8----8----8-----7-|-888-8-888-8-888-88-8\10/7----8-7--8-7--|
|--00---00---00---00----|----------------------------------------|


|------------------------------------------------|
|------------------------------------------------|
|------------------------------------------------|
|10-----10-----10-----10-----6--6-6-6-6--5-5-5-5-|
|8------8------8------8------7---7-7-7-7--6-6-6--|
|--0000---0000---0000---0000------7-7-7-7--6-6-6-|
                                 this end bit might be wrong


7b
|---------------------------------------------------------------|
|---------------------------------------------------------------|
|---------------------------------------------------------------|
|1010101010101010-666666666666-7-7-7-7-7-9--66666---10----9-----|
|888888888888888--777777777777—8-8-8-8-8\10-77777-----8-7---8-7-|
|---------------------------------------------------------------|


|-----------------------------------------------------|
|-----------------------------------------------------|
|-----------------------------------------------------|
|10-----10-----10-----10-----666666--6-6-6-6--5-5-5-5-|
|8------8------8------8------777777---7-7-7-7--6-6-6--|
|--0000---0000---0000---0000-----------7-7-7-7--6-6-6-|


|---------------------------------------------------------------|
|---------------------------------------------------------------|
|---------------------------------------------------------------|
|1010101010101010-666666666666-7-7-7-7-7-9--66666---10----9-----|
|888888888888888--777777777777—8-8-8-8-8\10-77777-----8-7---8-7-|
|---------------------------------------------------------------|


|-----------------------------------------------------|
|-----------------------------------------------------|
|-----------------------------------------------------|
|10-----10-----10-----10-----666666—-3-3-3-3-2-2-2-2--|
|8------8------8------8------777777—-4-4-4-4-3-3-3-3--|
|--0000---0000---0000---0000---------4-4-4-4-3-3-3-3--|



then play riff 1
          riff 2
          riff 3
          riff 4  end with this riff.
The last few times they add some tremelo picking on the open notes

The End.
Fuck You!

  Visit MetalTabs.com for more metal tablature

bottom separator

Contact Us | Privacy Policy | Disclaimer | Legal Notice
Copyright © 2001-2014 MetalTabs.com. All Rights Reserved.