top separator

Home

Forum

What's New

Submit a Tab

FAQ

Links

Contact Us

Link to Us

MuSpy.com

MetalTabs.com logo

Bands

0-9

A

B

C

D

E

F

G

H

I

J

K

L

M

N

O

P

Q

R

S

T

U

V

W

X

Y

Z

Search

What

Where
 

Decapitated - "Names" Guitar Tab

Plain Text Version
More Decapitated Tabs

Hits: 7000
Rated: 3.67 out of 5 (6 votes)
Updated: 2005-12-30 00:54:38

 

By:

Yura

sendpm.gif

email.gif

Important note
This tab is available online because we obtained explicit permission from Decapitated or their label.


#----------------------------------PLEASE NOTE---------------------------------#
#This file is the author's own work and represents their interpretation of the #
#song. You may only use this file for private study, scholarship, or research. #
#Unless specified otherwise, this is NOT an official tab from the band members.#
#------------------------------------------------------------------------------#

  Visit MetalTabs.com for more metal tablature
  
Song : NAMES
Band : DECAPITATED
ALBUM : NIHILITY
Copyright Earache Records 2002 

Version 2.0 (December'05)
Transcribed by : Yura Kowalchuk
       contact : yura_kowalchuk@mail.ru
Solo Transcribed by : k13m
            contact : k13m@hotmail.com

::TABULATURE LEGEND::
 " - tremolo             h - hammer on
 ~ - vibrato             \ - slide down
 p - pull off            / - slide down
 tr - tremolo picking    ^ - pinch harmonics
 = - sustained note      b - bend string
 p.m. - palm muting      t - tapping

Tuning is D [D, G, C, F, A, D]

[Intro]
|----------------------|--...[b r e a k]...--|
|----------------------|---------------------|
|----------------------|---------------------|
|--------------3-------|---------------------|
|-3--2-----5-2---2-5---|---------------------|
|-1----4-1-----------4-|---------------------|
     . . . . . . . . .

[Part 1a (x2)]
||-----------------------|------------------------------
||o----------------------|------------------------------
||-----------------------|------------------------------
||--------8/9-9-9-8-8-8~-|--------8/9-9-9/11-11-11\8--8-
||o-2--------------------|------------------------------
||--0-000-6/7-7-7-6-6-6~-|-000000-6/7-7-7/9--9---9\6--6-
      ...                  ......

[ending 1]
------------------------|---------------------------||
------------------------|--------------------------o||
------------------------|---------------------------||
--------8/9-9-9\8~8-8~--|---------------------------||
------------------------|--------------------2-----o||
-000000-6/7-7-7\6-6-6~--|-000000111111-4-1-0---4-1--||
 ......                   ............ . . . . . .

[ending 2]
------------------------|-------------------------|
------------------------|-------------------------|
------------------------|-------------------------|
--------8/9-9-9\8-8-8~--|--------------3----------|
------------------------|-3--2-----5-2---2-5------|
-000000-6/7-7-7\6-6-6~--|-1----4-1-----------4----|
 ......                      . . . . . . . . .

[Part 2]
|-----------------------------------------------------
|-----------------------------------------------------
|-------8/9-9-9~--------8/9-9-9/11-11-11/12-12-12\8-8-
|-----------------------------------------------------
|-2-----6/7-7-7~--------6/7-7-7/9--9--9/10--10-10\6-6-
|-0-000----------000000-------------------------------
    ...          ......

------------------|-----------------------------------------------|
------------------|-----------------------------------------------|
--------8/9-9-9~--|--------8/9-9-9-----------------------8/9-9-9~-|
------------------|----------------9-9-9-8-8-8-8-8-8--------------|
--------6/7-7-7~--|--------6/7-7-7-7-7-7-6-6-6-6-6-6-----6/7-7-7~-|
-000000-----------|-000000---------7-7-7-6-6-6-6-6-6-0-0----------|
 ......             ......                           . .

[Outro 1]
|-------------------------------------------|
|-------------------------------------------|
|--------8/9-9-9/11-11-11/12-12-12/14-14----|
|-------------------------------------------|
|--------6/7-7-7/9--9---9/10-10-10/12-12----|
|-000000---------------------------------0--|
  ......                                 .

[Part 3a]
|-------------------------------------------------------------
|-11-11-11-11~--------------11-11-11-11\10-10-10/13-13--------
|-------------------------------------------------------------
|-8--8--8--8~---------------8--8--8--8-\7--7--7-/10-10--------
|-------------------------------------------------------------
|--------------000000000000----------------------------000000-
|              ............                            ......
|-------------------------------------------------------------
|-11-11-11-11~--------------11-11-11-11\10-10-10/13-13--------
|-------------------------------------------------------------
|-8--8--8--8~---------------8--8--8--8-\7--7--7-/10-10--------
|-------------------------------------------------------------
|--------------000000000000----------------------------000000-
               ............                            ......

-|------------------------------------------------------------|-
-|---------------------------14-14-14-14\13-13-13\8-8---------|-
-|------------------------------------------------------------|-
-|-11-11-11-11~--------------11-11-11-11\10-10-10\6--6--------|-
-|------------------------------------------------------------|-
-|--------------000000000000---------------------------000000-|-
 |              ............                          ......  |
-|------------------------------------------------------------|-
-|------------------------------------------------------------|-
-|---------------------------15-15-15-15\14-14-14\10-10-------|-
-|-11-11-11-11~-----------------------------------------------|-
-|---------------------------13-13-13-13\12-12-12\8--8--------|-
-|--------------000000000000---------------------------000000-|-
                ............                           ......

------------------------------------------------------|
-11-11-11-11~-------------10-10-10-10\9-9-9-----------|
------------------------------------------------------|
-8--8--8--8~--------------8--8--8--8-\7-7-7-----------|
------------------------------------------------------|
-------------000000000000-----------------------------|
             ............                             |
------------------------------------------------------|
-11-11-11-11~-------------10-10-10-10\9-9-9-----------|
------------------------------------------------------|
-8--8--8--8~--------------8--8--8--8-\7-7-7-----------|
------------------------------------------------------|
-------------000000000000-----------------------------|
             ............

[Outro 2]
|-----------------------------|
|-----------------------------|
|-----------------------------|
|-----------------------------|
|-2=======--------------2-----|
|-0=======-111111-4-1-0-------|
           ...... . . . .

[Part 4 (x4)]
||-------------------------------------------------|-----------------------
||o------------------------------------------------|-----------------------
||-------------------------------------------------|-----------------------
||-------------------------------------------------|-----------------------
||o-2---------------2--------------------------2---|-2---------------2-----
||--0--111111-4-1-0---4-1-000000-111110-111110-0---|-0--111111-4-1-0---4-1-
       ...... . . . . . . ...... ...... ......          ...... . . . . . .

[ending 1,3]                  [ending 2]
---------------------------|| --------------------------|
--------------------------o|| --------------------------|
---------------------------|| --------------------------|
------------------3--------|| --------------------------|
--------2-----5-2---2-5---o|| --------8-5-7-3-5-2-3-----|
-000000---4-1-----------4--|| -000000---------------5-4-|
 ...... . . . . . . . . .      ...... . . . . . . . . .

 [ending 4]
 ---------------------------------|
 ---------------------------------|
 ---------------------------------|
 ---------------------------------|
 --------------2-5----------2-----|
 -000000111111-----4-111111-0-----|
  ............ . . . ...... .

                      [Part 5a (x7)] /under solo/
 --------------------||--------------------------||
 --------------------||o------------------------o||
 --------------------||--------------------------||
 --------------------||--------------------------||
 -----------------2--||o--------------2--2------o||
 -----------------0--||--111111111111-0--0-------||
                  .  |   ............ .  .        |
 --------------------||--------------------------||
 --------------------||o------------------------o||
 --------------------||--------------------------||
 --------------------||--------------------------||
 --------------2--2--||o--------------2--2------o||
 -111111111111-0--0--||--111111111111-0--0-------||
  ............ .  .      ............ .  .

                        [Part 5b (x3)]
 ---------------------||-----------------------------------||
 ---------------------||o---------------------------------o||
 ---------------------||-----------------------------------||
 ---------------------||-----------------------------------||
 --------2-5----------||o-2---------------2-----2========-o||
 -111111-----4-111111-||--0--111111-4-1-0---4-1-0========--||
  ...... . . . ...... |      ...... . . . . . .             |
 ---------------------||-----------------------------------||
 ---------------------||o---------------------------------o||
 ---------------------||-----------------------------------||
 ---------------------||-----------------------------------||
 --------2-5----------||o-2---------------2-----2========-o||
 -111111-----4-111111-||--0--111111-4-1-0---4-1-0========--||
  ...... . . . ......        ...... . . . . . .

SOLO:

/   - slide up to
\   - slide down to
ph  - pinched harmonic
BHR - bend up half note and release bend
**  - see comment

|-------------------------------------------------------------|
|15--14--15-14-12--14-12-10--12-10-9--10-9-7--9-7-6-3--2-3-3--|
|-------------------------------------------------------------|
|-------------------------------------------------------------|
|-------------------------------------------------------------|
|-------------------------------------------------------------|
harmony of above.
|-------------------------------------------------------------------|
|19--18--19-18-15--18-15-14--15-14-12--14-12-10--12-10-9-7--6-7-7---|
|-------------------------------------------------------------------|
|-------------------------------------------------------------------|
|-------------------------------------------------------------------|
|-------------------------------------------------------------------|

|--------------|
|--------------|
|-------/14----|
|/14-----ph----|
|--------------|
|--------------|
FAST!!
|-----------------------------------------------------------------------|
|-----------------------------------------------------------------------|
|-----------------------------------------------------------------------|
|----------------------------------------------------12-14-15-12-14-15--|
|-------------------11-12-14-11-12-14-15-14-12-14-15--------------------|
|/12-13-12-10-12-13-----------------------------------------------------|

|-------------------------------------------------------|
|------------------15----------------15-17-18-15-17-18--|
|13-14-16-14-16-17----17-16-14-16-17--------------------|
|-------------------------------------------------------|
|-------------------------------------------------------|
|-------------------------------------------------------|
slower ending of the fast part.

|16-------16-17----16-17-19BHR-17-19--------/24--24\-----------|
|---17-18-------18-------------------------------------/17-15--|
|--------------------------------------------------------------|
|--------------------------------------------------------------|
|--------------------------------------------------------------|
|--------------------------------------------------------------|

play 3 times
|----------t-------|----------|
|15-17-18-21-18-17-|15-17-18--|
|------------------|----------|
|------------------|----------|
|------------------|----------|
|------------------|----------|

|---------------------------------|
|18--17---------------------------|
|--------17--16--14--13-----------|
|------------------------15--14---|
|----------------------------ph---|
|---------------------------------|
harmony of the above
|---------------------------------|
|18--17--17--15-------------------|
|-------*ph*-----17--16--14--13---|
|----------------------------ph---|
|---------------------------------|
|---------------------------------|
** im not completely sure bout this ph, the note is definatly right,
but it sounds that theres a ph there.

[Outro 3]
|-----------------------|--------------------------|------|
|-----------------------|--------------------------|------|
|-----------------------|--------------------------|------|
|-----------------------|------------------3-------|------|
|-2---------------2-----|--------2-----5-2---2-5---|------|
|-0--111111-4-1-0---4-1-|-111111---4-1-----------4-|------|
     ...... . . . . . .   ...... . . . . . . . . .

[Part 1a (x2)]
||-----------------------|------------------------------
||o----------------------|------------------------------
||-----------------------|------------------------------
||--------8/9-9-9-8-8-8~-|--------8/9-9-9/11-11-11\8--8-
||o-2--------------------|------------------------------
||--0-000-6/7-7-7-6-6-6~-|-000000-6/7-7-7/9--9---9\6--6-
|     ...                | ......
||-----------------------|------------------------------
||o----------------------|------------------------------
||-----------------------|------------------------------
||--------8/9-9-9-8-8-8~-|--------4/5-5-5/7--7---7\4--4-
||o-2--------------------|------------------------------
||--0-000-6/7-7-7-6-6-6~-|-000000-2/3-3-3/5--5---5\2--2-
      ...                  ......

[ending 1]
------------------------|---------------------------||
------------------------|--------------------------o||
------------------------|---------------------------||
--------8/9-9-9\8~8-8~--|---------------------------||
------------------------|--------------------2-----o||
-000000-6/7-7-7\6-6-6~--|-000000111111-4-1-0---4-1--||
 ......                 | ............ . . . . . .   |
------------------------|---------------------------||
------------------------|--------------------------o||
------------------------|---------------------------||
--------8/9-9-9\8~8-8~--|---------------------------||
------------------------|--------------------2-----o||
-000000-6/7-7-7\6-6-6~--|-000000111111-4-1-0---4-1--||
 ......                   ............ . . . . . .

[ending 2]
------------------------|-------------------------|
------------------------|-------------------------|
------------------------|-------------------------|
--------8/9-9-9\8-8-8~--|--------------3----------|
------------------------|-3--2-----5-2---2-5------|
-000000-6/7-7-7\6-6-6~--|-1----4-1-----------4----|
 ......                 |    . . . . . . . . .    |
------------------------|-------------------------|
------------------------|-------------------------|
------------------------|-------------------------|
--------8/9-9-9\8-8-8~--|--------------3----------|
------------------------|-3--2-----5-2---2-5------|
-000000-6/7-7-7\6-6-6~--|-1----4-1-----------4----|
 ......                      . . . . . . . . .

[PART 2]

[Outro 4]
|------------------------------------------|
|------------------------------------------|
|--------12-11119-9/1111/1212/14-14/15-----|
|------------------------------------------|
|--------10\9-9-7-7/9-9/10-10/12-12/13-----|
|-000000-------------------------------0---|
  ......                               .

[Part 3a]
|-------------------------------------------------------------
|-11-11-11-11~--------------11-11-11-11\10-10-10/13-13--------
|-------------------------------------------------------------
|-8--8--8--8~---------------8--8--8--8-\7--7--7-/10-10--------
|-------------------------------------------------------------
|--------------000000000000----------------------------000000-
|              ............                            ......
|-------------------------------------------------------------
|-11-11-11-11~--------------11-11-11-11\10-10-10/13-13--------
|-------------------------------------------------------------
|-8--8--8--8~---------------8--8--8--8-\7--7--7-/10-10--------
|-------------------------------------------------------------
|--------------000000000000----------------------------000000-
               ............                            ......

-|------------------------------------------------------------|-
-|---------------------------14-14-14-14\13-13-13\8--8--------|-
-|------------------------------------------------------------|-
-|-11-11-11-11~--------------11-11-11-11\10-10-10\6--6--------|-
-|------------------------------------------------------------|-
-|--------------000000000000---------------------------000000-|-
 |              ............                           ...... |
-|------------------------------------------------------------|-
-|------------------------------------------------------------|-
-|---------------------------15-15-15-15\14-14-14\10-10-------|-
-|-11-11-11-11~-----------------------------------------------|-
-|---------------------------13-13-13-13\12-12-12\8--8--------|-
-|--------------000000000000---------------------------000000-|-
                ............                           ......

------------------------------------------------|
-11-11-11-11~-------------10-10-10-10\9-9-9-----|
------------------------------------------------|
-8--8--8--8~--------------8--8--8--8-\7-7-7-----|
------------------------------------------------|
-------------000000000000-------------------0-0-|
             ............                   . . |
------------------------------------------------|
-11-11-11-11~-------------10-10-10-10\9-9-9-----|
------------------------------------------------|
-8--8--8--8~--------------8--8--8--8-\7-7-7-----|
------------------------------------------------|
-------------000000000000-------------------0-0-|
             ............                   . .

[Outro 5]
|-----------------------|----------------------|-----------|
|-----------------------|----------------------|-----------|
|-----------------------|----------------------|-----------|
|-5--4--------3-------4-|--6--------5-------6--|-2---------|
|-4--3--------2-------3-|--6--------4-------5--|-2---------|
|-3--2--0-0-0-1-0-0-0-2-|--4--0-0-0-3-0-0-0-4--|-0---------|
        . . .   . . .         . . .   . . .      .

[Riff 5]
||----------------------------------[x2]--||--------------|-
||o--------------------------------------o||--------------|-
||------------------------------4-----5---||--------------|-
||---------5--------5-----------3-----4---||--------5-----|-
||o--------4--------4-----------2-----3--o||--------4-----|-
||--444333-3-222333-3-333222111---222-----||-444333-3-----|-
    ......   ......   .........   ...        ......

-||----------------------------------[x3]--||
-||o--------------------------------------o||
-||------------------------------4-----5---||
-||---------5--------5-----------3-----4---||
-||o--------4--------4-----------2-----3--o||
-||--444333-3-222333-3-333222111---222-----||
     ......   ......   .........   ...

[Outro 6]
|---------------------------------------|
|---------------------------------------|
|---------------------------------------|
|--------5--------5---------------------|
|--------4--------4--------3----^-------|
|-444333-3-222333-3-333222-1----2~~-----|
  ......   ......   ......

[Part 6]
||-------------------------[x4]--||------------||----------------
||o-----------------------------o||------------||o---------------
||-------------------------------||------------||----------------
||-------------------------------||-5===-4-----||----------------
||o---------------444----444----o||-2===-2--4--||o---------------
||--666333-666333----333----333--||-2===-2--2--||--666333-666333-
    ...... ...... ...... ......                    ...... ......

-----------[x2]-||------------||-------------------------[x4]--||------------|
---------------o||------------||o-----------------------------o||------------|
----------------||------------||-------------------------------||------------|
----------------||-5===-4-----||-------------------------------||-5===-4-----|
-444----444----o||-2===-2--4--||o---------------444----444----o||-2===-2--4--|
----333----333--||-2===-2--2--||--666333-666333----333----333--||-2===-2--2--|
 ...... ......                    ...... ...... ...... ......

[Outro 7]
|--------------------------------------|
|--------------------------------------|
|--------------------------------------|
|-5===-4===-4===-3==-------------------|
|-2===-2===-1===-1==-3-4==========....-|
|-2===-2===-1===-1==-1-2=========....--|

[Part 7]
||------------------------[x4]--||-------------||------------------
||o----------------------------o||-------------||o-----------------
||------------------------------||-------------||------------------
||------------------------------||-5--4--4--3--||------------------
||o-----------------444---444--o||-2--2--4--3--||o-----------------
||--6-3-0-3-6-3-0-3----3-----3--||-2--2--2--1--||--6-3-0-3-6-3-0-3-
    . . . . . . . . ....  ....                     . . . . . . . .

-------------||-------------||------------------------[x4]--||-------------
-------------||-------------||o----------------------------o||-------------
-------------||-------------||------------------------------||-------------
-------------||-5--4--4--3--||------------------------------||-5--4--4--3--
-444---444--o||-2--2--4--3--||o-----------------444---444--o||-2--2--4--3--
----3-----3--||-2--2--2--1--||--6-3-0-3-6-3-0-3----3-----3--||-2--2--2--1--
                 . . . . . . . . ....  ....

-||------------------------[x2]--||----
-||o----------------------------o||----
-||------------------------------||----
-||------------------------------||----
-||o-----------------444---444--o||-2--
-||--6-3-0-3-6-3-0-3----3-----3--||-0--
     . . . . . . . . ....  ....     .
[Part 3a]
|-------------------------------------------------------------
|-11-11-11-11~--------------11-11-11-11\10-10-10/13-13--------
|-------------------------------------------------------------
|-8--8--8--8~---------------8--8--8--8-\7--7--7-/10-10--------
|-------------------------------------------------------------
|--------------000000000000----------------------------000000-
|              ............                            ......
|-------------------------------------------------------------
|-11-11-11-11~--------------11-11-11-11\10-10-10/13-13--------
|-------------------------------------------------------------
|-8--8--8--8~---------------8--8--8--8-\7--7--7-/10-10--------
|-------------------------------------------------------------
|--------------000000000000----------------------------000000-
               ............                            ......

-|------------------------------------------------------------|-
-|---------------------------14-14-14-14\13-13-13\8--8--------|-
-|------------------------------------------------------------|-
-|-11-11-11-11~--------------11-11-11-11\10-10-10\6--6--------|-
-|------------------------------------------------------------|-
-|--------------000000000000---------------------------000000-|-
 |              ............                           ...... |
-|------------------------------------------------------------|-
-|------------------------------------------------------------|-
-|---------------------------15-15-15-15\14-14-14\10-10-------|-
-|-11-11-11-11~-----------------------------------------------|-
-|---------------------------13-13-13-13\12-12-12\8--8--------|-
-|--------------000000000000---------------------------000000-|-
                ............                           ......

--------------------------------------------------|
-11-11-11-11~-------------10-10-10-10\9-9-9/12-12-|
--------------------------------------------------|
-8--8--8--8~--------------8--8--8--8-\7-7-7/10-10-|
--------------------------------------------------|
-------------000000000000-------------------------|
             ............                         |
--------------------------9--9--9--9--8-8-8-10-10-|
-11-11-11-11~-------------------------------------|
--------------------------6--6--6--6--5-5-5-8--8--|
-8--8--8--8~--------------------------------------|
--------------------------------------------------|
-------------000000000000-------------------------|
             ............

|----------------------------|----------------------|
|--------14-14-14-14~--------|----------------------|
|----------------------------|----------------------|
|--------11-11-11-11~--------|----------------------|
|----------------------------|-888888777777-7--6-5--|
|-000000--------------000000-|--------------5--4-3--|
| ......              ...... | ............         |
|--------12-12-12-12~--------|----------------------|
|----------------------------|----------------------|
|--------9--9--9--9~---------|----------------------|
|----------------------------|----------------------|
|----------------------------|-888888777777-7--6-5--|
|-000000--------------000000-|--------------5--4-3--|
  ......              ......   ............

END OF SONG

  Visit MetalTabs.com for more metal tablature

bottom separator

Contact Us | Privacy Policy | Disclaimer | Legal Notice
Copyright © 2001-2014 MetalTabs.com. All Rights Reserved.