top separator

Home

Forum

What's New

Submit a Tab

FAQ

Links

Contact Us

Link to Us

MuSpy.com

MetalTabs.com logo

Bands

0-9

A

B

C

D

E

F

G

H

I

J

K

L

M

N

O

P

Q

R

S

T

U

V

W

X

Y

Z

Search

What

Where
 

Cattle Decapitation - "The Regurgitation Of Corpses" Guitar Tab

Plain Text Version
More Cattle Decapitation Tabs

Hits: 3705
Rated: 5.00 out of 5 (2 votes)
Updated: 2005-05-07 09:14:24

 

By:

sendpm.gif

email.gif

Important note
This tab is available online because we obtained explicit permission from Cattle Decapitation or their label.


#----------------------------------PLEASE NOTE---------------------------------#
#This file is the author's own work and represents their interpretation of the #
#song. You may only use this file for private study, scholarship, or research. #
#Unless specified otherwise, this is NOT an official tab from the band members.#
#------------------------------------------------------------------------------#

  Visit MetalTabs.com for more metal tablature
  
Band:  Cattle Decapitation
Album: To Serve Man
Song:  The Regurgitation Of Corpses

Copyright (c)  Metal blade 2002
Version 1.1 - 4/19/05

Transcribed By: Jorge Zuniga
Email:          fungus_infested_genitals@yahoo.com
                xlos_crudos4x@yahoo.com


.  - palm mute           /  - slide up to
  - slide down to       ~  - vibrato
h  - hammer on           b  - Bend
p  - pull off            Suffixes for bend
t  - tap                 f  - full bend    h - half bend
ph - pinched harmonic    q  - quarter bend t - tap bend
*  - see comment         ^  - Hold bend    r release bend
x  - Stuccatto           ~  - vibrato bend
,  - slight palm mute    () - ghost note, sustained note
"  - tremolo note        <> - Trill

Tunning Eb Ab Db Gb Bb eb

this should sound very accurate.

riff 1
|--------------------|
|--------------------|
|--------------------|
|--------7b-----7----|x4
|------6----------6b-|
|-5"--------5"-------|

pause

riff 1 x2

riff  2
|-------------------------------|
|-------------------------------|
|-------------------------------|
|-7-----7-----7-----7-7----7----|x3
|-x-----x-----x-----x-x------6b-|
|-5-555-5-555-5-555-5-5-5"------|
    ...   ...   ...

riff 2a
|-----------------------|
|-----------------------|
|-----------------------|
|-7-----7-----7-----7-7-|x1
|-x-----x-----x-----x-x-|
|-5-555-5-555-5-555-5-5-|
    ...   ...   ...


riff 3
|---------------------|           |-----|
|---------------------|           |-----|
|---------------------|x5         |-----|x1
|-7-----7-----7-----7-|           |-----|
|-x-----x-----x-----x-|           |-----|
|-5-555-5-555-5-555-5-|           |-/5\-|
    ...   ...   ...


riff 4                      riff 5
|---------------------|   |------------------------------------------|
|---------------------|   |------------------------------------------|
|---------------------|   |------------------------------------------|
|---------------------|x8 |-----8"---------------------8"------------|x4
|------6b-------6b----|   |---7"--7"-8"-10"-8"-7"----7"--7"-8"-7"-5"-|
|-5555-----5555----4b-|   |-5----------------------5-----------------|
 *....*   *....*

* = only palm mute last four times


riff 6
|--------------------------------------|
|--------------------------------------|
|--------------------------------------|
|--------------------------------------|x1
|-5----4----5----4----5----4----5----4-|
|-3-22-2-33-3-22-2-33-3-22-2-33-3-22-2-|
    ..   ..   ..   ..   ..   ..   ..

riff 5 x1
riff 6 x1

riff 7
|--------------------------|
|--------------------------|
|--------------------------|
|-----7-----8-----7-----6--|x1
|---6-----7-----6-----5----|
|-5-----6-----5-----4------|
  . . . . . . . . . . . .


riff 8
|------------------------------------------------|
|------------------------------------------------|
|------------------------------------------------|
|------------------------------------------------|x1
|------------------------------------------------|
|-3p0"--2p0"--3p0"--2p0"--3p0"--2p0"--3p0"--2p0"-|

riff 7 x1
riff 8 x1
riff 7 x1
riff 8 x1
riff 7 x4


riff 9
|------------|
|------------|
|------------|
|------------|x1
|-7--8--6--7-|
|-5--6--4--5-|

riff 1 x4


riff 10
|------------|
|------------|
|------------|
|------------|x2 regular picked then x2 tremelo picked
|-7--6--8--7-|
|-5--4--6--5-|

END.

  Visit MetalTabs.com for more metal tablature

bottom separator

Contact Us | Privacy Policy | Disclaimer | Legal Notice
Copyright © 2001-2014 MetalTabs.com. All Rights Reserved.