top separator

Home

Forum

What's New

Submit a Tab

FAQ

Links

Contact Us

Link to Us

MetalTabs.com logo

Bands

0-9

A

B

C

D

E

F

G

H

I

J

K

L

M

N

O

P

Q

R

S

T

U

V

W

X

Y

Z

Search

What

Where
 

Babylon Whores - "Omega Therion" Guitar Tab

Plain Text Version
More Babylon Whores Tabs

Hits: 2857
Updated: 2005-01-21 11:35:16

 

By:

sendpm.gif

email.gif

Important note
This tab is available online because we obtained explicit permission from Babylon Whores or their label.


#----------------------------------PLEASE NOTE---------------------------------#
#This file is the author's own work and represents their interpretation of the #
#song. You may only use this file for private study, scholarship, or research. #
#Unless specified otherwise, this is NOT an official tab from the band members.#
#------------------------------------------------------------------------------#

  Visit MetalTabs.com for more metal tablature
  
Omega Therion by Babylon Whores

 This song appears on the album "Cold Heaven" and the EP "Deggael",
 (c) Spinefarm 1997 and 1998 respectively.  All guitars tuned to B.


b|----------------------------------------------------
f#17b19r17-15----------------------------------------- Main riff,
d|------------18-16--------14-14/16-16----------14-16-  guitar 1
a|----------------------------------------14-16-------
e|---------------------------------------------------- Let last note ring
b|----------------------------------------------------  on 4th repeat

b|----------------------------------------------------
f#---------------------------------------------------- Main riff,
d|----------------------------------------------------  guitar 2
a|----------------------------------------------------
e|-------------9-10------10-9-7-------7-5--4--5--7----
b|7---------7---------------------------------------5-

 |----------------------------------------------------
 |----------------------------------------------------
 |16-------------------------------------------------- Break
 |----------------------------------------------------
 |9---------------------------------------------------
 |7-----------------------------------777-7-7-7-7-7-5-


b|----------------------------------------------------
f#-19-------------17b19r17-15-------------------------
d|fade in-----16-------------------------------------- Verse riff, guitar 1
a|---------------------------------------------------- very quiet, appears on
e|---------------------------------------------------- repeats #3 and #4
b|----------------------------------------------------

b|----------------------------------------------------
f#----------------------------------------------------
d|---------------------------------------------------- Verse riff, guitar 2
a|9--------------7----6----5--------------------------
e|9--------------7----6----5--------------------------
b|7--------------5----4----3----------333-3-3-3-3-3-5-



b|-------------------------------------------------
f#-------------------------------------------------
d|------------------------------------------------- Bridge riff, guitar 1
a|------------------------------------3--2h3p2----- Guitar 2 plays alone
e|----------------------------------------------3-- the first time through,
b|------------------------------------------------- then G1 kicks in
  Play this on repeat 2
 |-------------------------------------------------
 |-------------------------------------------------
 |-------------------------------------------------
 |---------2-----------0-----------3---------------
 |0-----------------------3---------------------3--
 |-------------------------------------------------
  Play this on repeats 3,5,6
 |-------------------------------------------------
 |-------------------------------------------------
 |-------------------------------------------------
 |---------2-----------0-----------3--3--2h3p2-----
 |0-----------------------3---------------------3--
 |-------------------------------------------------
  Play this on repeat 4

b|------------------------------------------------
f#------------------------------------------------
d|---------4--4--4--4--------------5--5--5--5----- Bridge riff, guitar 2
a|2--2--2--2--2--2--2--0--5--5--5--3--3--3--3-----  (played 6 times)
e|0--0--0-----------------3--3--3--------------3--
b|------------------------------------------------

b|------------------------------------------------
f#------------------------------------------------
d|------------------------------------------------ Break, guitar 1
a|3-----------------------2-----b3-----r--b--r----
e|------------------------------------------------
b|------------------------------------------------

b|------------------------------------------------
f#------------------------------------------------
d|------------------------------------------------ Break, guitar 2
a|3--3--3--3--3--3--3--3--3--3--3--3--3--3--3--3--
e|1--1--1--1--1--1--1--1--1--1--1--1--1--1--1--1--
b|------------------------------------------------



b|------------------------------------------------
f#------------------------------------------------
d|------------------------------------------------ alt. verse,
a|-----------------------/10---------9--10--9--7-- synth
e|8-----------------------------------------------
b|------------------------------------------------

 |------------------------------------------------
 |------------------------------------------------
 |------------------------------------------------
 (7)----------------------10-------12-------10----
 |------------------------------------------------
 |------------------------------------------------

b|------------------------------------------------
f#15b17r15----------------------------------------
d|---------17------------17-----------16b17r16-14- alt. verse,
a|------------------------------------------------ guitar 1
e|------------------------------------------------ enters on 3rd repeat
b|------------------------------------------------

 |------------------------------------------------
 |------------------------------------------------
 (14)---------------------------------------------
 |------------------------------------------------
 |------------------------------------------------
 |------------------------------------------------

b|------------------------------------------------
f#------------------------------------------------
d|------------------------------------------------ alt. verse,
a|------------------------5--5--5--5--4--5--4--2-- guitar 2
e|3--3--3--3--3--3--3--3--3--3--3--3--2--3--2--0--
b|1--1--1--1--1--1--1--1--------------------------

 |------------------------------------------------
 |------------------------------------------------
 |------------------------------------------------
 (2)-------2--2--2--2--2--2--2--2--2--2--2--2--2--
 (0)-------0--0--0--0--0--0--0--0--0--0--0--0--0--
 |------------------------------------------------


Main riff x4
 Break
Verse riff x4
Bridge riff x6
 Break
Main riff x4
 Break
Verse riff x4
Bridge riff x6
 Break
Main riff x4
Alt. verse x4
Main riff x8

 Other Babylon Whores tabs coming "soon":
  Deggael: A Rat's God (Deggael)
  Errata Stigmata (King Fear)
  Fey (King Fear)
  Radio Werewolf (King Fear)
  Sol Niger (Deggael / King Fear)


 -J. Cromwood (smoermeliathotmail.com)
   Jan 19, 2005

  Visit MetalTabs.com for more metal tablature

bottom separator

Contact Us | Privacy Policy | Disclaimer | Legal Notice
Copyright © 2001-2014 MetalTabs.com. All Rights Reserved.