top separator

Home

Forum

What's New

Submit a Tab

FAQ

Links

Contact Us

Link to Us

MetalTabs.com logo

Bands

0-9

A

B

C

D

E

F

G

H

I

J

K

L

M

N

O

P

Q

R

S

T

U

V

W

X

Y

Z

Search

What

Where
 

Chaosbreed - "Shitgrinder" Guitar Tab

Plain Text Version
More Chaosbreed Tabs

Hits: 2554
Updated: 2005-01-21 11:33:29

 

By:

sendpm.gif

email.gif

Important note
We did our best to reach Chaosbreed and ask for their permission to publish this tab. Unfortunately they did not respond to our requests or we could not find a way to contact them. This tab is available online until Chaosbreed tells us to take it down.


#----------------------------------PLEASE NOTE---------------------------------#
#This file is the author's own work and represents their interpretation of the #
#song. You may only use this file for private study, scholarship, or research. #
#Unless specified otherwise, this is NOT an official tab from the band members.#
#------------------------------------------------------------------------------#

  Visit MetalTabs.com for more metal tablature
  
Chaosbreed - Shitgrinder
 off the album Brutal (c) Century Media 2004

I think they're playing c-tuned guitars on the recording, but what the hell,
mine's in B and you could play this song with standard tuning as well.
(Bow before the rhyme-meister.)

  Riff 1
b|--|------|------|------|------|------|------|------(21)--|-----|
f#--|------|------|------|------|------|------|------|-----|-----|
d|6-|5----3|6----8|5----3|6----3|5----3|6----8|5----3|6----|-----|
a|6-|5----3|6----8|5----3|6----3|5----3|6----8|5----3|6--hold----|
e|4-|3----1|4----6|3----1|4----1|3----1|4----6|3----1|4----|-----|
b|--|------|------|------|------|------|------|------|-----|-----|

  Intro to riff 2     Riff 2
b|-----------------|-----------------|
f#-----------------|-----------------|
d|---------___3___-|---------___3___-|
a|--------/-------\|--------/-------\|
e|-----------666777|88---------666777|
b|66666666999------|--666666999------|

    Riff 3
b|--------|--------|--------|--------|--------|--------|--------|--------|
f#--------|--------|--------|--------|--------|--------|--------|--------|
d|--------|--------|--------|--------|--------|--------|--------|--------|
a|8-8---8-|6-6---6-1010--10-|--------|6-6---6-|8-8---8-|--------|--------|
e|6-6---6-|4-4---4-|8-8---8-|8-8---8-|4-4---4-|6-6---6-|8--8--8-|8--8--8-|
b|--------|--------|--------|6-6---6-|--------|--------|6--6--6-|6--6--6-|

  during the last two bars of riff 3, another guitar does bends like these,
  listen to the timings and occurrences for yourself
b|-------|18-----|---
f#11-----|21b23--|---
d|13b15--|-------|---
a|-------|-------|---
e|-------|-------|---
b|-------|-------|---


Structure:
Riff 1
Riff 2 x8 (no vocals)
Riff 2 x8
Riff 3 x2
Riff 2 x4 (solo)
Riff 2 x8
Riff 3 x4
Riff 2 x3

Ending chord:

b|-------------|
f#-------------|
d|-------------|
a|8------------|
e|8------------|
b|6------------|


 -J. Cromwood (smoermeliathotmail.com)
   29th Nov 2004

  Visit MetalTabs.com for more metal tablature

bottom separator

Contact Us | Privacy Policy | Disclaimer | Legal Notice
Copyright © 2001-2014 MetalTabs.com. All Rights Reserved.