top separator

Home

Forum

What's New

Submit a Tab

FAQ

Links

Contact Us

Link to Us

MetalTabs.com logo

Bands

0-9

A

B

C

D

E

F

G

H

I

J

K

L

M

N

O

P

Q

R

S

T

U

V

W

X

Y

Z

Search

What

Where
 

Immortal - "Cryptic winterstorms" Guitar Tab

Plain Text Version
More Immortal Tabs

Hits: 4498
Rated: 1.00 out of 5 (7 votes)
Updated: 2005-05-07 09:27:41

 

By:

Necromajesty

sendpm.gif

email.gif

Important note
We did our best to reach Immortal and ask for their permission to publish this tab. Unfortunately they did not respond to our requests or we could not find a way to contact them. This tab is available online until Immortal tells us to take it down.


#----------------------------------PLEASE NOTE---------------------------------#
#This file is the author's own work and represents their interpretation of the #
#song. You may only use this file for private study, scholarship, or research. #
#Unless specified otherwise, this is NOT an official tab from the band members.#
#------------------------------------------------------------------------------#

  Visit MetalTabs.com for more metal tablature
  
Artist:Immortal
Song:Cryptic Winterstorms
Album:Diabolical Fullmoon Mysticism
Tuning:Standard

Copyright (c)  (Osmoe Productions)  (1992)
Version 1.0-   (1-18-200)

Transcripted By:(Necromajesty)
Email:          (Necromajesty27@Hotmail.com)

Key
.Palm Mute
'Tremelo

Riff1 Acoustic Guitar fade in
E[----------------------]
B[----------------------]
G[----------------------]
D[----------------------]
A[----------------------]
E[----------------------]

Riff2
E[----------------------]
B[----------------------]
G[----------------------]
D[2-5-2-3-5-------------]
A[2-5-2-3-5-------------]
E[0-3-0-1-3-------------]

Riff3
E[------------------------]
B[------------------------]
G[------------------------]
D[------------------------]
A[3-5---------------------]
E[1-3---------------------]

Riff4
E[----------------------]
B[----------------------]
G[----------------------]
D[----------------------]
A[----------------------]
E[0-2-3-----------------]

Riff5
E[-----------------]
B[-----------------]
G[-----------------]
D[-----------------]
A[9-9-9-8----------]
E[7-7-7-6----------]

Riff6
E[-----------------]
B[-----------------]
G[-----------------]
D[-----------------]
A[5-5-5-6-6-6------]
E[3-3-3-3-3-3------]

Solo

If you have any questions email me Necromajesty27@hotmail.com

  Visit MetalTabs.com for more metal tablature

bottom separator

Contact Us | Privacy Policy | Disclaimer | Legal Notice
Copyright © 2001-2014 MetalTabs.com. All Rights Reserved.