top separator

Home

Forum

What's New

Submit a Tab

FAQ

Links

Contact Us

Link to Us

MuSpy.com

MetalTabs.com logo

Bands

0-9

A

B

C

D

E

F

G

H

I

J

K

L

M

N

O

P

Q

R

S

T

U

V

W

X

Y

Z

Search

What

Where
 

Darkside (AT) - "Hear Evil, Speak Evil, Do Evil" Guitar Tab

Plain Text Version
More Darkside (AT) Tabs

Hits: 1875
Updated: 2005-01-21 05:50:56

 

By:

Zombie Clown

sendpm.gif

email.gif

Important note
This tab is available online because we obtained explicit permission from Darkside (AT) or their label.


#----------------------------------PLEASE NOTE---------------------------------#
#This file is the author's own work and represents their interpretation of the #
#song. You may only use this file for private study, scholarship, or research. #
#Unless specified otherwise, this is NOT an official tab from the band members.#
#------------------------------------------------------------------------------#

  Visit MetalTabs.com for more metal tablature
  
Band: Darkside
Album: Cognitive Dissonance
Song: Hear Evil, Speak Evil, Do Evil

Copyright (c)  (Season of Mist) (2001)
Version 1.0 - (2005)

Transcribed By: Zombie Clown
Email:          bobnoboborjimnobobgoat@yahoo.com


.  - palm mute           /  - slide up to
\  - slide down to       ~  - vibrato
h  - hammer on           b  - Bend
p  - pull off            Suffixes for bend
t  - tap                 f  - full bend    h - half bend
ph - pinched harmonic    q  - quarter bend t - tap bend
*  - see comment         ^  - Hold bend    r release bend
x  - Stuccatto           ~  - vibrato bend
,  - slight palm mute    () - ghost note, sustained note
"  - tremolo note        <> - Trill

Tunning E A D G B E

intro

both guitars

|----|---------------|
|----|---------------|
|----|---------------|
|----|---------------|
|----|---------------|
|----|-pick scrape-\-|

|-------------------|----------------------|
|-------------------|----------------------|
|-------------------|----------------------| x2
|-7----8-----10--9--|-7----12-----14---15--|
|-------------------|----------------------|
|-5----6-----8---7--|-5----10-----12---13--|

verse

both guitars

|-------------------------------------------------|
|-------------------------------------------------|
|-------------------------------------------------|
|-------------------------------------------------|
|-8-8-8-8-8-8-5-5-5-5-5-5-4-4-4-4-4-4-5-5-5-4-4-5-|
|-6-6-6-6-6-6-3-3-3-3-3-3-2-2-2-2-2-2-3-3-3-2-2-3-|

|-------------------------------------------------|
|-------------------------------------------------|
|-------------------------------------------------|
|-------------------------------------------------|
|-8-8-8-8-8-8-5-5-5-5-5-5-2-2-2-2-2-2-5-5-5-4-4-5-|
|-6-6-6-6-6-6-3-3-3-3-3-3-0-0-0-0-0-0-3-3-3-2-2-3-|

prechorus

both guitars

|------------------|-------------------|
|------------------|-------------------|
|------------------|-------------------|
|------------------|-------------------|
|-9-------9--------|-9----------9-9/10-|
|-7-------7--------|-7----------7-7/8--|
      .        .          .*
*you palm mute one beat after playing the note

chorus

both guitars

|------------|------------|------------|------------|
|------------|------------|------------|------------|
|------------|------------|------------|------------|
|------------|------------|------------|------------|
|-2----------|------------|-8----------|-6-------5--|
|-0----------|------------|-6----------|-4-------3--|

|------------|------------|------------|-----------------|
|------------|------------|------------|-----------------|
|----0--2-3--|----0--2-3--|----0--2-3--|---0-2-3---0-2-3-|
|------------|------------|------------|-----------------|
|-0----------|-0----------|-0----------|-0-------0-------|
|-0----------|-0----------|-0----------|-0-------0-------|
  .            .            .            .       .*
*palm mute very lightly so notes ring under melody

guitar 1 goes into a harmony part after a while

|------------|------------|------------|-----------------|
|------------|------------|------------|-----------------|
|----0--5-3--|----0--5-3--|----0--5-3--|---0-5-3---0-5-3-|
|------------|------------|------------|-----------------|
|-0----------|-0----------|-0----------|-0-------0-------|
|-0----------|-0----------|-0----------|-0-------0-------|
  .            .            .            .       .*
*palm mute very lightly so notes ring under melody

bridge

guitar 1

|---------|---------|---------|---------|
|---------|---------|---------|---------|
|---------|---------|---------|---------|
|-7-------|-5-------|-7-------|-8-------|
|---------|---------|---------|---------|
|---------|---------|---------|---------|

|--------------------------|
|--------------------------|
|--------------------------|
|-7bh*-------r*-6----------|
|------------------7\*-----|
|--------------------------|
*slowly

unsure of what he does next, probably
a bunch of random slides on the lower strings
then a solo

guitar 2

|----------------|---------------|
|----------------|---------------|
|----------------|---------------|
|----------------|---------------|
|-3--------2-----|-3--------5----|
|----3--4------3-|----3--4----3--|

under solo:

|----------------|---------------|
|----------------|---------------|
|----------------|---------------|
|-5--------4-----|-5--------7----|
|-3--5--6--2---5-|-3--5--6--5--5-|
|----3--4------3-|----3--4-----3-|

ending

both guitars

|----|
|----|
|----|
|----|
|-0--|
|-0--|

  Visit MetalTabs.com for more metal tablature

bottom separator

Contact Us | Privacy Policy | Disclaimer | Legal Notice
Copyright © 2001-2014 MetalTabs.com. All Rights Reserved.