top separator

Home

Forum

What's New

Submit a Tab

FAQ

Links

Contact Us

Link to Us

MetalTabs.com logo

Bands

0-9

A

B

C

D

E

F

G

H

I

J

K

L

M

N

O

P

Q

R

S

T

U

V

W

X

Y

Z

Search

What

Where
 

Crowbar - "Empty Room" Bass Tab

Plain Text Version
More Crowbar Tabs

Hits: 3025
Rated: 2.50 out of 5 (2 votes)
Updated: 2005-01-21 05:20:58

 

By:

sendpm.gif

email.gif

Important note
This tab is available online because we obtained explicit permission from Crowbar or their label.


#----------------------------------PLEASE NOTE---------------------------------#
#This file is the author's own work and represents their interpretation of the #
#song. You may only use this file for private study, scholarship, or research. #
#Unless specified otherwise, this is NOT an official tab from the band members.#
#------------------------------------------------------------------------------#

  Visit MetalTabs.com for more metal tablature
  
Band: Crowbar
Song: Empty Room
Album: Sonic Excess In Its Purest Form
Tabbed By: dirtyrottenimbeciles

Tuning: B-E-A-D-G


Verse

G |----------------------------------------------------|
D |--------------7---5------------------14----12----14-|
A |------------5---------------------12----------------|
E |----------3-----3--------------10-------10----12----|
B |-0-0--0-0-------------0-0--0-0----------------------|


Pre-Chorus

G |-------------|
D |-------------|
A |-------------|
E |-------------|
B |-10-10-8-8-8-|


Chorus

G |-----------------------------------|
D |-----------------------------------|
A |-----------------------------------|
E |----------------------12-10-8-10---|
B |-7/8\7-7/8\7-5-7-0--0------------5-|

G |----------------------------------|
D |----------------------------------|
A |----------------------------------|
E |----------------------12-10-8-----|
B |-7/8\7-7/8\7-5-7-0--0---------5-5-|


Outro

G |-------------------------------------------------|
D |-----------------------------------------9-----9-|
A |---------------------------------------7-----6---|
E |------------------------------5--5---5-----4-----|
B |-2--2-2--2-0-4--4-5-4-2-4-2-0--------------------|


please rate!!

  Visit MetalTabs.com for more metal tablature

bottom separator

Contact Us | Privacy Policy | Disclaimer | Legal Notice
Copyright © 2001-2014 MetalTabs.com. All Rights Reserved.