top separator

Home

Forum

What's New

Submit a Tab

FAQ

Links

Contact Us

Link to Us

MetalTabs.com logo

Bands

0-9

A

B

C

D

E

F

G

H

I

J

K

L

M

N

O

P

Q

R

S

T

U

V

W

X

Y

Z

Search

What

Where
 

Darkest Hour - "Payphone and Pills" Guitar Tab

Plain Text Version
More Darkest Hour Tabs

Hits: 6226
Rated: 3.50 out of 5 (4 votes)
Updated: 2005-01-21 05:52:52

 

By:

Guillermo_

sendpm.gif

email.gif

Important note
This tab is available online because we obtained explicit permission from Darkest Hour or their label.


#----------------------------------PLEASE NOTE---------------------------------#
#This file is the author's own work and represents their interpretation of the #
#song. You may only use this file for private study, scholarship, or research. #
#Unless specified otherwise, this is NOT an official tab from the band members.#
#------------------------------------------------------------------------------#

  Visit MetalTabs.com for more metal tablature
  
Payphone and Pills
 by The Darkest Hour

 Guitar 1 = Lead Guitar
 Guitar 2

 Tuning   = CGCFAD     (Dropped C)

.  - palm mute           /  - slide up to
\  - slide down to       ~  - vibrato
h  - hammer on           b  - Bend
p  - pull off            Suffixes for bend
t  - tap                 f  - full bend    h - half bend
ph - pinched harmonic    q  - quarter bend t - tap bend
*  - see comment         ^  - Hold bend    r release bend
x  - Stuccatto           ~  - vibrato bend
,  - slight palm mute    () - ghost note, sustained note
"  - tremolo note        <> - Trill

Tabs by Guillermo de Roquefeuil M.(Anti_flag87@hotmail.com)

                        ____________
                         Intro Riff

Guitar1
|-----------------------------|---------------------------------|  X2
|-----------------------------|---------------------------------|
|-----------------------------|---------------------------------|
|-8--8-8-8-8--8-8-8-8--8-8-8-8|-3-5--0--x-x-x-0-x-x-x-0-x-x-x-0|
|-8--8-88-8--8-8-8-8-8-8-8-8|-3-5--0--x-x-x-0-x-x-x-0-x-x-x-0|
|-8--8-8-8-8--8-8-8-8-8-8-8-8|-3-5--0--x-x-x-0-x-x-x-0-x-x-x-0|

Guitar2
|-----------------------------|---------------------------------|  X2
|-----------------------------|---------------------------------|
|-----------------------------|---------------------------------|
|-8--8-8-8-8--8-8-8-8--8-8-8-8|-3-5--0--x-x-x-0-x-x-x-0-x-x-x-0|
|-8--8-88-8--8-8-8-8-8-8-8-8|-3-5--0--x-x-x-0-x-x-x-0-x-x-x-0|
|-8--8-8-8-8--8-8-8-8-8-8-8-8|-3-5--0--x-x-x-0-x-x-x-0-x-x-x-0|

                         ___________
                       Intro Riff part 2

Guitar1
|-----------------------------|---------------------------------|
|-----------------------------|---------------------------------|
|-----------------------------|---------------------------------|
|-----------------------------|----------x-x-x-0-x-x-x-0-x-x-x-0|
|-5--5-5-5-5--5-5-5-5--5-5-5-5|-3--1--0--x-x-x-0-x-x-x-0-x-x-x-0|
|-----------------------------|----------x-x-x-0-x-x-x-0-x-x-x-0|

|-----------------------------|---------------------------------|
|-----------------------------|---------------------------------|
|-----------------------------|---------------------------------|
|-----------------------------|----------x-x-x-0-x-x-x-0-x-x-x-0|
|7/8-8-8-8-8-7-7-7-7--7-7-7-7|7/8-7--5--x-x-x-0-x-x-x-0-x-x-x-0|
|-----------------------------|----------x-x-x-0-x-x-x-0-x-x-x-0|

Guitar2
|-----------------------------|---------------------------------|  X2
|-----------------------------|---------------------------------|
|-----------------------------|---------------------------------|
|-8--8-8-8-8--8-8-8-8--8-8-8-8|-3-5--0--x-x-x-0-x-x-x-0-x-x-x-0|
|-8--8-88-8--8-8-8-8-8-8-8-8|-3-5--0--x-x-x-0-x-x-x-0-x-x-x-0|
|-8--8-8-8-8--8-8-8-8-8-8-8-8|-3-5--0--x-x-x-0-x-x-x-0-x-x-x-0|

                         ___________
                         (Couplet 1)

(Guitar2 begin and guitar1 take the lead with the same riff)

Guitar1
|-----------------------------|--------------------------|
|-----------------------------|--------------------------|
|-----------------------------|--------------------------|
|-----------------------------|----------------6---------|
|-----------------------------|----------------6---------|
|-----------------------------|----------------6---------|

|-----------------------------|--------------------------|
|-----------------------------|--------------------------|
|-----------------------------|--------------------------|
|-----------------------------|--------------------------|
|-----------------------------|-------53--------1p3-3---|
|-----------------------------|-3-3-3--3---1-1-1-------0-|
  . . .   .                     . . .  .   . . .

Guitar2
|-----------------------------|--------------------------|
|-----------------------------|--------------------------|
|-----------------------------|--------------------------|
|-----------------------------|--------------------------|
|-------8----5p7-7------------|-------8--7---5-----------|
|-0-0-0---0-0------0----------|-0-0-0---0--0---6---------|
  . . .   . .                   . . .   .  .

|-----------------------------|--------------------------|
|-----------------------------|--------------------------|
|-----------------------------|--------------------------|
|-----------------------------|--------------------------|
|-------8----5p7-7------------|-------53--------1p3-3---|
|-6-6-6---0-0-----------------|-3-3-3--3---1-1-1-------0-|
  . . .   . .                   . . .  .   . . .

Guitar1
|-----------------------------|--------------------------|
|-----------------------------|--------------------------|
|-----------------------------|--------------------------|
|-----------------------------|--------------------------|
|-------8----5p7-7------------|-------8--7---5-----------|
|-0-0-0---0-0------0----------|-0-0-0---0--0---6---------|
  . . .   . .                   . . .   .  .

|-----------------------------|--------------------------|
|-----------------------------|--------------------------|
|-----------------------------|--------------------------|
|-----------------------------|--------------------------|
|-------8----5p7-7------------|-------53--------1p3-3---|
|-6-6-6---0-0-----------------|-3-3-3--3---1-1-1-------0-|
  . . .   . .                   . . .  .   . . .

Guitar2
(Same as Guitar1)
                        ___________
                          Refrain

Guitar1
|-----------------------------|--------------------------|
|-----------------------------|--------------------------|
|-----------------------------|--------------------------|
|-0--x-x-x-x------------------|-7--7-7-7-7---------------|
|-0--x-x-x-x-5-7-8------------|-7--7-7-7-7-7-9-10--------|
|-0--x-x-x-x------------------|-7--7-7-7-7---------------|
                                   . . . .
|-----------------------------|--------------------------------------|
|-----------------------------|--------------------------------------|
|-----------------------------|--------------------------------------|
|-8--8-8-8-8------------------|--------------------------------------|
|-8--8-8-8-8-8-10-12----------|----------12-12-12-----------12-12-12-|
|-8--8-8-8-8------------------|-10-10-10----------11-11--11----------|
     . . . .

Guitar2 (Same as guitar1)
|-----------------------------|--------------------------|
|-----------------------------|--------------------------|
|-----------------------------|--------------------------|
|-0--x-x-x-x------------------|-7--7-7-7-7---------------|
|-0--x-x-x-x-5-7-8------------|-7--7-7-7-7-7-9-10--------|
|-0--x-x-x-x------------------|-7--7-7-7-7---------------|
                                   . . . .
|-----------------------------|--------------------------------------|
|-----------------------------|--------------------------------------|
|-----------------------------|--------------------------------------|
|-8--8-8-8-8------------------|--------------------------------------|
|-8--8-8-8-8-8-10-12----------|----------12-12-12-----------12-12-12-|
|-8--8-8-8-8------------------|-10-10-10----------11-11--11----------|
     . . . .

Refrain part 2

Guitar1
|---------------------------------------------------------------------------|
|---------------------------------------------------------------------------|
|---------------------------------------------------------------------------|
|-----------------------------------------x-x-x-x-x---x-x-x-x-x---x-x-x-x-x-|
|-------8-8-8---------------8-8-8-------5-x-x-x-x-x-5-x-x-x-x-x-5-x-x-x-x-x-|
|-5-5-5-------5-5-5--7-7-7--------7-7-7-0-x-x-x-x-x-0-x-x-x-xx-0-x-x-x-x-x-|

Guitar2
|---------------------------------------------------------------------------|
|---------------------------------------------------------------------------|
|---------------------------------------------------------------------------|
|-----------------------------------------x-x-x-x-x---x-x-x-x-x---x-x-x-x-x-|
|-------8-8-8---------------8-8-8-------5-x-x-x-x-x-5-x-x-x-x-x-5-x-x-x-x-x-|
|-5-5-5-------5-5-5--7-7-7--------7-7-7-0-x-x-x-x-x-0-x-x-x-xx-0-x-x-x-x-x-|
                          ___________
                          (Couplet 1)

Guitar1
|-----------------------------|--------------------------|
|-----------------------------|--------------------------|
|-----------------------------|--------------------------|
|-----------------------------|----------------6---------|
|-----------------------------|----------------6---------|
|-----------------------------|----------------6---------|

|-----------------------------|--------------------------|
|-----------------------------|--------------------------|
|-----------------------------|--------------------------|
|-----------------------------|--------------------------|
|-----------------------------|-------53--------1p3-3---|
|-----------------------------|-3-3-3--3---1-1-1-------0-|
  . . .   .                     . . .      . . .
Guitar2
|-----------------------------|--------------------------|
|-----------------------------|--------------------------|
|-----------------------------|--------------------------|
|-----------------------------|--------------------------|
|-------8----5p7-7------------|-------8--7---5-----------|
|-0-0-0---0-0------0----------|-0-0-0---0--0---6---------|
  . . .   . .                   . . .   .  .

|-----------------------------|--------------------------|
|-----------------------------|--------------------------|
|-----------------------------|--------------------------|
|-----------------------------|--------------------------|
|-------8----5p7-7------------|-------53--------1p3-3---|
|-6-6-6---0-0-----------------|-3-3-3--3---1-1-1-------0-|
  . . .   . .                   . . .  .   . . .

Guitar1
|-----------------------------|--------------------------|
|-----------------------------|--------------------------|
|-----------------------------|--------------------------|
|-----------------------------|--------------------------|
|-------8----5p7-7------------|-------8--7---5-----------|
|-0-0-0---0-0------0----------|-0-0-0---0--0---6---------|
  . . .   . .                   . . .   .  .

|-----------------------------|--------------------------|
|-----------------------------|--------------------------|
|-----------------------------|--------------------------|
|-----------------------------|--------------------------|
|-------8----5p7-7------------|-------53--------1p3-3---|
|-6-6-6---0-0-----------------|-3-3-3--3---1-1-1-------0-|
  . . .   . .                   . . .  .   . . .

Guitar2
(Same as Guitar1)

                        ___________
                          Refrain

Guitar1
|-----------------------------|--------------------------|
|-----------------------------|--------------------------|
|-----------------------------|--------------------------|
|-0--x-x-x-x------------------|-7--7-7-7-7---------------|
|-0--x-x-x-x-5-7-8------------|-7--7-7-7-7-7-9-10--------|
|-0--x-x-x-x------------------|-7--7-7-7-7---------------|
                                   . . . .
|-----------------------------|--------------------------------------|
|-----------------------------|--------------------------------------|
|-----------------------------|--------------------------------------|
|-8--8-8-8-8------------------|--------------------------------------|
|-8--8-8-8-8-8-10-12----------|----------12-12-12-----------12-12-12-|
|-8--8-8-8-8------------------|-10-10-10----------11-11--11----------|
     . . . .

Guitar2 (Same as guitar1)
|-----------------------------|--------------------------|
|-----------------------------|--------------------------|
|-----------------------------|--------------------------|
|-0--x-x-x-x------------------|-7--7-7-7-7---------------|
|-0--x-x-x-x-5-7-8------------|-7--7-7-7-7-7-9-10--------|
|-0--x-x-x-x------------------|-7--7-7-7-7---------------|
                                   . . . .
|-----------------------------|--------------------------------------|
|-----------------------------|--------------------------------------|
|-----------------------------|--------------------------------------|
|-8--8-8-8-8------------------|--------------------------------------|
|-8--8-8-8-8-8-10-12----------|----------12-12-12-----------12-12-12-|
|-8--8-8-8-8------------------|-10-10-10----------11-11--11----------|
     . . . .

Refrain part 2

Guitar1
|---------------------------------------------------------------------------|
|---------------------------------------------------------------------------|
|---------------------------------------------------------------------------|

|-----------------------------------------x-x-x-x-x---x-x-x-x-x---x-x-x-x-x-|
|-------8-8-8---------------8-8-8-------5-x-x-x-x-x-5-x-x-x-x-x-5-x-x-x-x-x-|
|-5-5-5-------5-5-5--7-7-7--------7-7-7-0-x-x-x-x-x-0-x-x-x-xx-0-x-x-x-x-x-|

Guitar2
|---------------------------------------------------------------------------|
|---------------------------------------------------------------------------|
|---------------------------------------------------------------------------|
|-----------------------------------------x-x-x-x-x---x-x-x-x-x---x-x-x-x-x-|
|-------8-8-8---------------8-8-8-------5-x-x-x-x-x-5-x-x-x-x-x-5-x-x-x-x-x-|
|-5-5-5-------5-5-5--7-7-7--------7-7-7-0-x-x-x-x-x-0-x-x-x-xx-0-x-x-x-x-x-|

                               ___________
     Only the first version.The full version will be added in maybe 2 weeks


                               ___________
   --- this song is so nice to play really I hope you ll have fun with it.
     it is not 100% right because it is a bit too fast to transcribe
         all the details by the ear but still this tab is decent
                   and you will enjoy playing this song.
                               Guillermo

Version 1.0 - (13/01/05)
xxxxxxxxxxxxxxxxxxxxxxxxxxxxxxxxxxxxxxxxxxxxxxxxxxxxxxxxxxxxxxxxxxxxxxxxxxxxxxx

  Visit MetalTabs.com for more metal tablature

bottom separator

Contact Us | Privacy Policy | Disclaimer | Legal Notice
Copyright © 2001-2014 MetalTabs.com. All Rights Reserved.