top separator

Home

Forum

What's New

Submit a Tab

FAQ

Links

Contact Us

Link to Us

MetalTabs.com logo

Bands

0-9

A

B

C

D

E

F

G

H

I

J

K

L

M

N

O

P

Q

R

S

T

U

V

W

X

Y

Z

Search

What

Where
 

Akercocke - "Ceremony Of Nine Angles" Guitar Tab

Plain Text Version
More Akercocke Tabs

Hits: 2870
Rated: 4.80 out of 5 (5 votes)
Updated: 2007-08-21 03:58:54

 

By:

Robbie Filth

sendpm.gif

email.gif

Important note
This tab is available online because we obtained explicit permission from Akercocke or their label.


#----------------------------------PLEASE NOTE---------------------------------#
#This file is the author's own work and represents their interpretation of the #
#song. You may only use this file for private study, scholarship, or research. #
#Unless specified otherwise, this is NOT an official tab from the band members.#
#------------------------------------------------------------------------------#

  Visit MetalTabs.com for more metal tablature
  
Band: Akercocke
Album: The Goat of Mendes
Song: Ceremony of Nine Angels
Record Label: Peaceville
Tuning: C F A# D# G C

Listen to rythm to get it xact

Intro
Gtr 1 (clean)
----------
---4-5----
----------
-4--------
----------
----------

Gtr2 (clean)
----------------
----------------
--------5---3---
-4-5--4---4-----
----------------
----------------
this riff varies so listen to get it right

Gtr 3
-----
-----
-----
--4--
--4--
--2--
just randomly does this chord in a cool rythm frm time to time :)

0:53
-----------
------4-5--
-----------
-44-5------
-----------
-----------X16

Gtr 1
----------
-----4-5--
----------
-4-5------
----------
----------X16
trem......

Gtr 2
----------
-----4-5--
----------
----------
----------
-1-2------X16
trem....

--------------------------------------
--------------------------------------
--------------------------------------
-:-9-12-:-9-12-14-:-9-12-:-9-12-15----
-9-7-10-9-7-10-12-9-7-10-9-7-10-13----
--------------------------------------
 trem.............................
: = 11

--------------------------------------
--------------------------------------
--------------------------------------
-:---12---:---8---:---12---:---8---5--
-9---10---9---6---9---10---9---6---3--
---0----0---0---0---0----0---0---0----
 trem...............................
: = 11

---------------
---------------
---0-----0-----
-3-3-3-4-4-4---
-3-3-3-4-4-4---
-1-1-1-2-2-2---X3

---------------------
---------------------
---0-----------------
-3-3-3---------------
-3-3-3-4-444-4-444---
-1-1-1-2-222-2-222---
         pm.   ...

---------------------
---------------------
---------------------
-----0---------0-----
---3---------4---4---
-1-----1---2---------X4
let notes ring

---------------------------------------------------------
---------------------------------------------------------
-0-0-0-0-0-0-0-0-0-0-0-0----0-0-0-0-0-0-0-0--------------
-9-9-9-------9-9-9-9-9-9----9-9-9-------9-9--99999999----
-7-7-7-7-7-7-7-7-7-7-7-7----7-7-7-7-7-7-7-7--77777777----
-------5-5-5----------------------5-5-5------------------
                                             pm......

-----------------------------------
-----------------------------------
-----------------------------------
-8-8-8-----------8-8-8-------------
-6-6-6-9-9-:-9-9-6-6-6-8-8-9-8-8---
-------7-7-8-7-7-------6-6-7-6-6---X4
               t               t
: = 10
t = trem

---------------------
---------------------
---------------------
-----0---------0-----
---3---------4---4---
-1-----1---2---------X4
let notes ring

------------------------------------
------------------------------------
------------------------------------
-4-2-5-2-4-2-5-7-4-2-5--------------
-2-0-3-0-2-0-3-5-2-0-3-7-5-4-2------
-----------------------5-3-2-0------
 let power chords ring (listen to cd)

---------------------------------------------------------------------
--------------------------------*------------------------------------
--------------------------------5------------------------------------
---------------------------------------------------------------------
-222200003333333322220000333333----22220000333333--------------------
-------------------------------------------------553333222200000000--x2
 pm............................    ................................

------------------------------------
------------------------------------
------------------------------------
-4-2-5-2-4-2-5-7-4-2-5--------------
-2-0-3-0-2-0-3-5-2-0-3-7-5-4-2------
-----------------------5-3-2-0------
 let power chords ring (listen to cd)

------------
------------
------------
------------
-2-2-2-1-2--
-0-0-1-0-0--X3
 pm.

---------------------
---------------------
---------------------
---------------------
-2-2-2-1---------2---
-0-0-1-0---------0---
 pm......    whammy bar
             let ring

4:44
---------------
---------------
---------------
---6-8-5-6-3---
-7-------------
---------------

4:58
---------------
---------------
---------------
---------------
-2-6-8-5-6-3---
-0-4-6-3-4-1---
 pm.........

---------------
---------------
---------------
---6-8-5-6-3---
-7-------------
---------------

---------------
---------------
---------------
---------------
-2-6-8-5-6-3---
-0-4-6-3-4-1---
 pm.........

-----------
-----------
-----------
-------2---
---6-3-----
-0---------X3
 trem....

-----------
-----------
-----------
-----------
-5-8-3-6---
-3-6-1-4---

-------------------
-------------------
-------------------
-------2-----------
---6-3---5-8-3-6---
-0-------3-6-1-4---X4
 trem...

---------------------------------------------------
---------------------------------------------------
---------------------------------------------------
---------------------------------------------------
---------------------------------------------------
-15-14-15-14-14-13-14-13-13-12-13-12-14-13-14-13---X4
 trem...........................................

-------------------------------------------
-------------------------------------------
-------------------------------------------
-------------------------------------------
-------------------------------------------
-0-8-7-8-7-4-8-7-8-7-5-8-7-8-7-1-8-7-8-7---X2
 trem...................................

-----------
-----------
-----------
-----------
-2---------
---3-2-0---
 trem....

6:06
-----------
-----------
-----------
-----------
-2-3-5-6---
-0-1-3-4---
 pm......

------------------------
------------------------
------------------------
------------------------
-3---6-5--3---5-4-3-----
---0--------0-------0---X2
 trem................


---------------------------------------------------
---------------------------------------------------
---------------------------------------------------
---------------------------------------------------
---------------------------------------------------
-15-14-15-14-14-13-14-13-13-12-13-12-14-13-14-13---
 trem...........................................

6:35
---------------
---------------
-14-17-14-16---
-xx-xx-xx-xx---
-12-15-12-14---
---------------does this a few times
 trem.......

-------------------------
-------------------------
-------------------------
-1-2-1-------------------
-------4-3---------------
-----------4-5-4-4-1-0---X8

7:15
-------------0-----------------------0-----------
-----1---0-------1---0-------4---0-------0---4---
---2---2---2---2---2---2---5---5---5---5---5-----
-------------------------------------------------
-0-----------------------3-----------------------
-------------------------------------------------
pm                       .

repeats this riff until the end
it does switch between clean and distortion a few times aswell

All the riffs are correct you just need to listen to the song to get
all the timings and stuff.
septic_flesh241@hotmail.com

  Visit MetalTabs.com for more metal tablature

bottom separator

Contact Us | Privacy Policy | Disclaimer | Legal Notice
Copyright © 2001-2014 MetalTabs.com. All Rights Reserved.