top separator

Home

Forum

What's New

Submit a Tab

FAQ

Links

Contact Us

Link to Us

MuSpy.com

MetalTabs.com logo

Bands

0-9

A

B

C

D

E

F

G

H

I

J

K

L

M

N

O

P

Q

R

S

T

U

V

W

X

Y

Z

Search

What

Where
 

Immortal - "In My Kingdom Cold" Guitar Tab

Plain Text Version
More Immortal Tabs

Hits: 5256
Rated: 1.11 out of 5 (9 votes)
Updated: 2005-05-07 09:28:21

 

By:

Necromajesty

sendpm.gif

email.gif

Important note
We did our best to reach Immortal and ask for their permission to publish this tab. Unfortunately they did not respond to our requests or we could not find a way to contact them. This tab is available online until Immortal tells us to take it down.


#----------------------------------PLEASE NOTE---------------------------------#
#This file is the author's own work and represents their interpretation of the #
#song. You may only use this file for private study, scholarship, or research. #
#Unless specified otherwise, this is NOT an official tab from the band members.#
#------------------------------------------------------------------------------#

  Visit MetalTabs.com for more metal tablature
  
Artist:Immortal
Song:In My Kindom Cold
Album:Sons Of Northern Darkness
Tuning:EADGBe

Copyright (c)  (Nuclearblast Records)  (2002)
Version 1.0 - (12-22-2004)

Transcribed By: (Necromajesty)
Email:          (Necromajesty27@Hotmail.com)

Key
"Temelo Pick
.Palm Mute

RiffA1
D|000000-333-222-111----------------------------------|
A|000000-333-222-111----------------------------------|
E|000000-111-000-000----------------------------------|

D|777-777-10-10-10-999-888-----------------------|
A|555-777-8--8--8--777-888-----------------------|
E|555-555-8--8--8--777-666-----------------------|


RiffA2
Play when he starts with Fourth after dark
D|777-9-10-888-10-777------------------------|
A|555-7-8--888-8--555------------------------|
E|555-7-8--666-8--555------------------------|

RiffB1
D|7-7-7-7-5-5-4-4-3-3-3-3-1-0-0--------------|

RiffB2
B|----2---2-------------2-------2--------------|
G|------3----33-----------3------33------------|
D|0---2-----8---------0----2----8--------------|
A|0---2-----8--"8-"7--0----2----8--"7-8--------|
E|0---0-----6---------0----0----6--------------|


Play this when starts saying In My Kingdom Cold
D|7-5-3-------7-5-3-------------------|
A|5-3-1-888-7-5-3-1-77-8--------------|


RiffB3
D|7-7-7-7-9-9-9-9-12-12-12-12-10-10-10-10----------|
A|5-5-5-5-7-7-7-7-10-10-10-10-8--8--8--8-----------|


D|7-7-7-7-9-9-9-9-12-12-12-12-10-10-9-9-------------|
A|5-5-5-5-7-7-7-7-10-10-10-10-8--8--7-7-------------|

RiffC1
D|0000-6-1-3-0000-5-1-0--------------------|
A|0000-6-1-3-0000-5-1-0--------------------|
E|-----4-0-1------3-0----------------------|
  ....       ....

D|0000-888-777-0000-8-10----------------|
A|0000-888-777-0000-8-10----------------|
E|-----666-555------6-8-----------------|
  ....         ....

RiffC2
D|10-10-10-10-9-9-9-9-7-7-7-7-7----------|
A|8--8--8--8--7-7-7-7-5-5-5-5-5----------|


D|10-10-10-10-12-12-12-12-12-9-9-9-9-7-7-7-7-------|
A|8--8--8--8--10-10-10-10-10-7-7-7-7-5-5-5-5-------|

End
D|10-9|
A|8--7|

  Visit MetalTabs.com for more metal tablature

bottom separator

Contact Us | Privacy Policy | Disclaimer | Legal Notice
Copyright © 2001-2014 MetalTabs.com. All Rights Reserved.