top separator

Home

Forum

What's New

Submit a Tab

FAQ

Links

Contact Us

Link to Us

MuSpy.com

MetalTabs.com logo

Bands

0-9

A

B

C

D

E

F

G

H

I

J

K

L

M

N

O

P

Q

R

S

T

U

V

W

X

Y

Z

Search

What

Where
 

Sodom - "Conjuration" Guitar Tab

Plain Text Version
More Sodom Tabs

Hits: 3714
Rated: 4.25 out of 5 (4 votes)
Updated: 2005-01-12 09:23:01

 

By:

MetalThrashingMad

sendpm.gif

email.gif

Important note
This tab is available online because we obtained explicit permission from Sodom or their label.


#----------------------------------PLEASE NOTE---------------------------------#
#This file is the author's own work and represents their interpretation of the #
#song. You may only use this file for private study, scholarship, or research. #
#Unless specified otherwise, this is NOT an official tab from the band members.#
#------------------------------------------------------------------------------#

  Visit MetalTabs.com for more metal tablature
  
Band: Sodom
Album: Persecution Mania
Song: Conjuration
Copyright (c) Steamhammer 1987
Version 1.0 - 1-9-2005
Transcribed By: Steve - MetalThrashingMad
Email: Thrasher502@hotmail.com

* - palm mute                    /
s - slide                       /
~ - vibrato                    /   - bend  up as indicated
h - hammer on
p - pull off                   \
t - right hand tapping          \
( ) - sustained note             \ - bend down as indicated
[] - side note
% - end riff
nh - natural harmonic            |
ph - pinched harmonic            |
tr - trill                       | - pre-bend as indicated
# - percussive note
.+ - continue to next staff      - - - - - hold note as indicated
Suffixes for bends:
5 - half step
1 - whole step
1.5 - step and a half
2 - two steps
2.5 - two and a half steps
[w/bar] - use tremolo bar

Gitarre- Frank "Blackfire" Gosdzik
Tuning E A D G B E

[play wayyy too many- 20 times]
|-------------------|
|-------------------|
|-------------------|
|-------------------|
|--------------5--5-|
|-0-0000000-0--3--3-|
  * ******* *

|-------------------------------------------------------------|
|-------------------------------------------------------------|
|-------------------------------------------------------------|
|-------------------------------------------------------------|
|-4444-4444-4444-4444-2222-2222-2222-2222-4444-4444-4444-44~~-|
|-2222-2222-2222-2222-0000-0000-0000-0000-2222-2222-2222-22~~-|
  **** **** **** **** **** **** **** **** **** **** **** **

[play 20 times]
|-------------------|
|-------------------|
|-------------------|
|-------------------|
|--------------5--5-|
|-0-0000000-0--3--3-|
  * ******* *

|-------------------------------------------------------------|
|-------------------------------------------------------------|
|-------------------------------------------------------------|
|-------------------------------------------------------------|
|-4444-4444-4444-4444-2222-2222-2222-2222-4444-4444-4444-44~~-|
|-2222-2222-2222-2222-0000-0000-0000-0000-2222-2222-2222-22~~-|
  **** **** **** **** **** **** **** **** **** **** **** **

[play 30 times]
|-------------------|
|-------------------|
|-------------------|
|-------------------|
|--------------5--5-|
|-0-0000000-0--3--3-|
  * ******* *

|-------------------------------------------------------------|
|-------------------------------------------------------------|
|-------------------------------------------------------------|
|-------------------------------------------------------------|
|-4444-4444-4444-4444-2222-2222-2222-2222-4444-4444-4444-44~~-|
|-2222-2222-2222-2222-0000-0000-0000-0000-2222-2222-2222-22~~-|
  **** **** **** **** **** **** **** **** **** **** **** **

[play 30 times]
|-------------------|
|-------------------|
|-------------------|
|-------------------|
|--------------5--5-|
|-0-0000000-0--3--3-|
  * ******* *

[play 3 times]
|---------------------|-----|
|---------------------|-----|
|---------------------|-----|
|---------------------|-----|
|---------------------|---2-|
|-0000-0000-0000-0000-%-000-|
  **** **** **** ****   **

END

  Visit MetalTabs.com for more metal tablature

bottom separator

Contact Us | Privacy Policy | Disclaimer | Legal Notice
Copyright © 2001-2014 MetalTabs.com. All Rights Reserved.