top separator

Home

Forum

What's New

Submit a Tab

FAQ

Links

Contact Us

Link to Us

MuSpy.com

MetalTabs.com logo

Bands

0-9

A

B

C

D

E

F

G

H

I

J

K

L

M

N

O

P

Q

R

S

T

U

V

W

X

Y

Z

Search

What

Where
 

Sodom - "Enchanted Land" Guitar Tab

Plain Text Version
More Sodom Tabs

Hits: 3725
Rated: 4.00 out of 5 (3 votes)
Updated: 2005-05-07 09:03:56

 

By:

MetalThrashingMad

sendpm.gif

email.gif

Important note
This tab is available online because we obtained explicit permission from Sodom or their label.


#----------------------------------PLEASE NOTE---------------------------------#
#This file is the author's own work and represents their interpretation of the #
#song. You may only use this file for private study, scholarship, or research. #
#Unless specified otherwise, this is NOT an official tab from the band members.#
#------------------------------------------------------------------------------#

  Visit MetalTabs.com for more metal tablature
  
Band: Sodom
Album: Persecution Mania
Song: Enchanted Land
Copyright (c) Steamhammer 1987
Version 1.1 - 04-18-2005
Transcribed By: Steve - MetalThrashingMad
Email: Thrasher502@hotmail.com


Gtr I (E A D G B E) - 'Guitar 1'
Gtr II (E A D G B E) - 'Guitar 2'
Gtr III (E A D G B E) - 'Both Guitars'


  Q=220
 4/4
  Gtr I
    PM--------------------------|       PM--|   PM|   PM
  E S   S S S S S S S S S S S S S   E S S S S E S S S S Q
|---------------------------------|-------------------------|
|---------------------------------|-------------------------|
|---------------------------------|-------------------------|
|---------------------------------|-------------------------|
|-2-------------------------------|-3---------4---------5\--|
|-0-0---0-0-0-0-0-0-0-0-0-0-0-0-0-|-1-0-0-0-0-2-0-0-0-0-3\--|
|
| Gtr II
| E H..                             W
|---------------------------------|-------------------------|
|---------------------------------|-------------------------|
|---------------------------------|-------------------------|
|---------------------------------|-------------------------|
|-2-------------------------------|-------------------------|
|-0-------------------------------|-------------------------|


    PM------------------------|       PM    PM
  E S S S S S S S S S S S S S S   E E E E E E Q
|-------------------------------|----------------|
|-------------------------------|----------------|
|-------------------------------|----------------|
|-------------------------------|-------5S4---3--|
|-2-----------------------------|-4S5---3S2-0-1--|
|-0-0-0-0-0-0-0-0-0-0-0-0-0-0-0-|-2S3-0----------|
|
| W                               W
|-------------------------------|----------------|
|-------------------------------|----------------|
|-------------------------------|----------------|
|-------------------------------|----------------|
|-------------------------------|----------------|
|-------------------------------|----------------|


  Q=220
 4/4
  Gtr I
    PM--------------------------|       PM--|   PM|   PM
  E S   S S S S S S S S S S S S S   E S S S S E S S S S Q
|---------------------------------|-------------------------|
|---------------------------------|-------------------------|
|---------------------------------|-------------------------|
|---------------------------------|-------------------------|
|-2-------------------------------|-3---------4---------5\--|
|-0-0---0-0-0-0-0-0-0-0-0-0-0-0-0-|-1-0-0-0-0-2-0-0-0-0-3\--|
|
| Gtr II
| E H..                             E Q       E Q       Q
|---------------------------------|-------------------------|
|---------------------------------|-------------------------|
|---------------------------------|-------------------------|
|---------------------------------|-------------------------|
|-2-------------------------------|-3---------4---------5\--|
|-0-------------------------------|-1---------2---------3\--|


    PM------------------------|       PM    PM
  E S S S S S S S S S S S S S S   E E E E E E Q
|-------------------------------|----------------|
|-------------------------------|----------------|
|-------------------------------|----------------|
|-------------------------------|-------5S4---3--|
|-2-----------------------------|-4S5---3S2-0-1--|
|-0-0-0-0-0-0-0-0-0-0-0-0-0-0-0-|-2S3-0----------|
|
| W                               W
|-------------------------------|----------------|
|-------------------------------|----------------|
|-------------------------------|----------------|
|-------------------------------|----------------|
|-------------------------------|----------------|
|-------------------------------|----------------|


    Gtr III
      PM------------------------|       PM--|   PM|   PM
    E S S S S S S S S S S S S S S   E S S S S E S S S S Q
||--------------------------------|-------------------------|
||o-------------------------------|-------------------------|
||--------------------------------|-------------------------|
||--------------------------------|-------------------------|
||o-2-----------------------------|-3---------4---------5\--|
||--0-0-0-0-0-0-0-0-0-0-0-0-0-0-0-|-1-0-0-0-0-2-0-0-0-0-3\--|


    PM------------------------|       PM    PM
  E S S S S S S S S S S S S S S   E E E E E E Q   4x
|-------------------------------|-----------------||
|-------------------------------|----------------o||
|-------------------------------|-----------------||
|-------------------------------|-------5S4---3---||
|-2-----------------------------|-4S5---3S2-0-1--o||
|-0-0-0-0-0-0-0-0-0-0-0-0-0-0-0-|-2S3-0-----------||


      PM------------------------|
    E S S S S S S S S S S S S S S   E S S S S E S S S S Q
||--------------------------------|-------------------------
||o-------------------------------|-------------------------
||--------------------------------|-------------------------
||--2-----------------------------|-3---------4---------5\--
||o-0-0-0-0-0-0-0-0-0-0-0-0-0-0-0-|-1-0-0-0-0-2-0-0-0-0-3\--
||--------------------------------|-------------------------


    PM------------------------|      PM
  E S S S S S S S S S S S S S S   Q  q  Q  Q   4x
|-------------------------------|--------------||
|-------------------------------|-------------o||
|-------------------------------|-------5--4---||
|-2-----------------------------|-5-----3--2---||
|-0-0-0-0-0-0-0-0-0-0-0-0-0-0-0-|-3--0--------o||
|-------------------------------|--------------||


    Gtr III
      PM------------------------|       PM--|   PM|   PM
    E S S S S S S S S S S S S S S   E S S S S E S S S S Q
||--------------------------------|-------------------------|
||o-------------------------------|-------------------------|
||--------------------------------|-------------------------|
||--------------------------------|-------------------------|
||o-2-----------------------------|-3---------4---------5\--|
||--0-0-0-0-0-0-0-0-0-0-0-0-0-0-0-|-1-0-0-0-0-2-0-0-0-0-3\--|


    PM------------------------|       PM    PM
  E S S S S S S S S S S S S S S   E E E E E E Q   4x
|-------------------------------|-----------------||
|-------------------------------|----------------o||
|-------------------------------|-----------------||
|-------------------------------|-------5S4---3---||
|-2-----------------------------|-4S5---3S2-0-1--o||
|-0-0-0-0-0-0-0-0-0-0-0-0-0-0-0-|-2S3-0-----------||


      PM------------------------|
    E S S S S S S S S S S S S S S   E S S S S E S S S S Q
||--------------------------------|-------------------------
||o-------------------------------|-------------------------
||--------------------------------|-------------------------
||--2-----------------------------|-3---------4---------5\--
||o-0-0-0-0-0-0-0-0-0-0-0-0-0-0-0-|-1-0-0-0-0-2-0-0-0-0-3\--
||--------------------------------|-------------------------


    PM------------------------|      PM
  E S S S S S S S S S S S S S S   Q  q  Q  Q   4x
|-------------------------------|--------------||
|-------------------------------|-------------o||
|-------------------------------|-------5--4---||
|-2-----------------------------|-5-----3--2---||
|-0-0-0-0-0-0-0-0-0-0-0-0-0-0-0-|-3--0--------o||
|-------------------------------|--------------||


  Q=220
 4/4
  Gtr I
    PM--------------------------|       PM--|   PM|   PM
  E S   S S S S S S S S S S S S S   E S S S S E S S S S Q
|---------------------------------|-------------------------|
|---------------------------------|-------------------------|
|---------------------------------|-------------------------|
|---------------------------------|-------------------------|
|-2-------------------------------|-3---------4---------5\--|
|-0-0---0-0-0-0-0-0-0-0-0-0-0-0-0-|-1-0-0-0-0-2-0-0-0-0-3\--|
|
| Gtr II
| E H..                             W
|---------------------------------|-------------------------|
|---------------------------------|-------------------------|
|---------------------------------|-------------------------|
|---------------------------------|-------------------------|
|-2-------------------------------|-------------------------|
|-0-------------------------------|-------------------------|


    PM------------------------|       PM    PM
  E S S S S S S S S S S S S S S   E E E E E E Q
|-------------------------------|----------------|
|-------------------------------|----------------|
|-------------------------------|----------------|
|-------------------------------|-------5S4---3--|
|-2-----------------------------|-4S5---3S2-0-1--|
|-0-0-0-0-0-0-0-0-0-0-0-0-0-0-0-|-2S3-0----------|
|
| W                               W
|-------------------------------|----------------|
|-------------------------------|----------------|
|-------------------------------|----------------|
|-------------------------------|----------------|
|-------------------------------|----------------|
|-------------------------------|----------------|


  Q=220
 4/4
  Gtr I
    PM--------------------------|       PM--|   PM|   PM
  E S   S S S S S S S S S S S S S   E S S S S E S S S S Q
|---------------------------------|-------------------------|
|---------------------------------|-------------------------|
|---------------------------------|-------------------------|
|---------------------------------|-------------------------|
|-2-------------------------------|-3---------4---------5\--|
|-0-0---0-0-0-0-0-0-0-0-0-0-0-0-0-|-1-0-0-0-0-2-0-0-0-0-3\--|
|
| Gtr II
| E H..                             E Q       E Q       Q
|---------------------------------|-------------------------|
|---------------------------------|-------------------------|
|---------------------------------|-------------------------|
|---------------------------------|-------------------------|
|-2-------------------------------|-3---------4---------5\--|
|-0-------------------------------|-1---------2---------3\--|


    PM------------------------|       PM    PM
  E S S S S S S S S S S S S S S   E E E E E E Q
|-------------------------------|----------------|
|-------------------------------|----------------|
|-------------------------------|----------------|
|-------------------------------|-------5S4---3--|
|-2-----------------------------|-4S5---3S2-0-1--|
|-0-0-0-0-0-0-0-0-0-0-0-0-0-0-0-|-2S3-0----------|
|
| W                               W
|-------------------------------|----------------|
|-------------------------------|----------------|
|-------------------------------|----------------|
|-------------------------------|----------------|
|-------------------------------|----------------|
|-------------------------------|----------------|


  Q=120
  Gtr I
  +W           +H     Q  Q
|------------|--------------|
|------------|--------------|
|------------|--------------|
|-(3)--------|-(3)----------|
|-(1)--------|-(1)----3--5--|
|------------|--------1--3--|
|
|  W            W
|------------|--------------|
|------------|--------------|
|------------|--------------|
|------------|--------------|
|------------|--------------|
|------------|--------------|


    Gtr III
          PM      PM--|
    E  E  E E  E  E E E   E  E  E  E  E E E E
||----------------------|---------------------|
||o---------------------|---------------------|
||----------------------|---------------------|
||----------------------|-------------2-2-2-2-|
||o-2-(2)---2-(2)-------|-2-(2)-2-(2)-3-3-3-3-|
||--3p=0--0-3p=0--0-0-0-|-3p=0--3p=0----------|


        PM      PM|             PM
  E  E  E E  E  E E E   +E  E E E Q  Q    4x
|---------------------|-------------------||
|---------------------|------------------o||
|---------------------|-------------------||
|---------------------|-------------------||
|-2-(2)---2-(2)-----3-|-(3)-3-3---3--3---o||
|-3p=0--0-3p=0--0-0-1-|-(1)-1-1-0-1--1----||


  W          H    H      E E E E E E E E
|----------|-----------|-----------------|
|----------|-----------|-----------------|
|----------|-----------|-----------------|
|-3--------|-----------|-----------------|
|-1--------|-3----5----|-2-----2---------|
|----------|-1----3----|-3-0-0-3-0-0-0-0-|


  E E E E E E E E   W          H    H
|-----------------|----------|-----------|
|-----------------|----------|-----------|
|-----------------|----------|-----------|
|-----------------|-3--------|-----------|
|-2-----2---------|-1--------|-3----5----|
|-3-0-0-3-0-0-0-0-|----------|-1----3----|


      PM------|   PM------|     PM------|   PM------|
    E S S E S S E S S E S S   E S S E S S E S S E S S
||--------------------------|---------------------------||
||o-------------------------|--------------------------o||
||--------------------------|---------------------------||
||--------------------------|---------------------------||
||o-2-----------2-----------|-2-----------2-----4------o||
||--3-0-0-0-0-0-3-0-0-0-0-0-|-3-0-0-0-0-0-3-0-0-5-0-0---||


                           PM------|   PM------|
  W          H    H      E S S E S S E S S E S S
|----------|-----------|-------------------------|
|----------|-----------|-------------------------|
|----------|-----------|-------------------------|
|-3--------|-----------|-------------------------|
|-1--------|-3----5----|-2-----------2-----------|
|----------|-1----3----|-3-0-0-0-0-0-3-0-0-0-0-0-|


    PM------|   PM------|
  E S S E S S E S S E S S   W          H    H
|-------------------------|----------|-----------|
|-------------------------|----------|-----------|
|-------------------------|----------|-----------|
|-------------------------|-3--------|-----------|
|-2-----------2-----------|-1--------|-3----5----|
|-3-0-0-0-0-0-3-0-0-0-0-0-|----------|-1----3----|


    Q=220
    PM--------------------------------------------------------------|
    S S S S S S S S S S S S S S S S   S S S S S S S S S S S S S S S S
||----------------------------------|-----------------------------------||
||o---------------------------------|----------------------------------o||
||----------------------------------|-----------------------------------||
||----------------------------------|-----------------------------------||
||o---------------------------------|----------------------------------o||
||--0-0-0-0-0-0-0-0-0-0-0-0-0-0-0-0-|-0-0-0-0-0-0-0-0-0-0-0-0-0-0-0-0---||


    PM--------------------------------------------------------------|
    S S S S S S S S S S S S S S S S   S S S S S S S S S S S S S S S S
||----------------------------------|----------------------------------|
||o---------------------------------|----------------------------------|
||----------------------------------|----------------------------------|
||----------------------------------|----------------------------------|
||o-1-1-1-1-1-1-1-1-1-1-1-1-1-1-1-1-|----------------------------------|
||----------------------------------|-1-1-1-1-1-1-1-1-3-3-3-3-3-3-3-3--|


  PM--------------------------------------------------------------|
  S S S S S S S S S S S S S S S S   S S S S S S S S S S S S S S S S  3x
|---------------------------------|----------------------------------||
|---------------------------------|---------------------------------o||
|---------------------------------|----------------------------------||
|---------------------------------|----------------------------------||
|---------------------------------|---------------------------------o||
|-0-0-0-0-0-0-0-0-0-0-0-0-0-0-0-0-|-0-0-0-0-0-0-0-0-0-0-0-0-0-0-0-0--||


  PM--------------------------------------------------------------|
  S S S S S S S S S S S S S S S S   S S S S S S S S S S S S S S S S
|---------------------------------|---------------------------------|
|---------------------------------|---------------------------------|
|---------------------------------|---------------------------------|
|---------------------------------|---------------------------------|
|-1-1-1-1-1-1-1-1-1-1-1-1-1-1-1-1-|---------------------------------|
|---------------------------------|-1-1-1-1-1-1-1-1-3-3-3-3-3-3-3-3-|


  PM--------------------------------------------------------------|
  S S S S S S S S S S S S S S S S   S S S S S S S S S S S S S S S S
|---------------------------------|---------------------------------|
|---------------------------------|---------------------------------|
|---------------------------------|---------------------------------|
|---------------------------------|---------------------------------|
|---------------------------------|---------------------------------|
|-0-0-0-0-0-0-0-0-0-0-0-0-0-0-0-0-|-0-0-0-0-0-0-0-0-0-0-0-0-0-0-0-0-|


    PM------------------------|       PM--|   PM|   PM
  E S S S S S S S S S S S S S S   E S S S S E S S S S Q
|-------------------------------|---------------------------|
|-------------------------------|---------------------------|
|-------------------------------|---------------------------|
|-------------------------------|---------------------------|
|-2-----------------------------|-3---------4---------5\----|
|-0-0-0-0-0-0-0-0-0-0-0-0-0-0-0-|-1-0-0-0-0-2-0-0-0-0-3\----|


                           PM------------------------|       PM    PM
  W          H    H      E S S S S S S S S S S S S S S   E E E E E E Q
|----------|-----------|-------------------------------|------------------|
|----------|-----------|-------------------------------|------------------|
|----------|-----------|-------------------------------|------------------|
|-3--------|-----------|-------------------------------|-------5S4---3----|
|-1--------|-3----5----|-2-----------------------------|-4S5---3S2-0-1----|
|----------|-1----3----|-0-0-0-0-0-0-0-0-0-0-0-0-0-0-0-|-2S3-0------------|


                           PM------------------------|       PM
  W          H    H      E S S S S S S S S S S S S S S   E E E H    +E
|----------|-----------|-------------------------------|------------------|
|----------|-----------|-------------------------------|------------------|
|----------|-----------|-------------------------------|------------------|
|-3--------|-----------|-------------------------------|-------5----(5)---|
|-1--------|-3----5----|-2-----------------------------|-4S5---3----(3)---|
|----------|-1----3----|-0-0-0-0-0-0-0-0-0-0-0-0-0-0-0-|-2S3-0------------|


    Gtr III
      PM------------------------|       PM--|   PM|   PM
    E S S S S S S S S S S S S S S   E S S S S E S S S S Q
||--------------------------------|-------------------------|
||o-------------------------------|-------------------------|
||--------------------------------|-------------------------|
||--------------------------------|-------------------------|
||o-2-----------------------------|-3---------4---------5\--|
||--0-0-0-0-0-0-0-0-0-0-0-0-0-0-0-|-1-0-0-0-0-2-0-0-0-0-3\--|


    PM------------------------|       PM    PM
  E S S S S S S S S S S S S S S   E E E E E E Q   4x
|-------------------------------|-----------------||
|-------------------------------|----------------o||
|-------------------------------|-----------------||
|-------------------------------|-------5S4---3---||
|-2-----------------------------|-4S5---3S2-0-1--o||
|-0-0-0-0-0-0-0-0-0-0-0-0-0-0-0-|-2S3-0-----------||


      PM------------------------|
    E S S S S S S S S S S S S S S   E S S S S E S S S S Q
||--------------------------------|-------------------------
||o-------------------------------|-------------------------
||--------------------------------|-------------------------
||--2-----------------------------|-3---------4---------5\--
||o-0-0-0-0-0-0-0-0-0-0-0-0-0-0-0-|-1-0-0-0-0-2-0-0-0-0-3\--
||--------------------------------|-------------------------


    PM------------------------|      PM
  E S S S S S S S S S S S S S S   Q  q  Q  Q
|-------------------------------|--------------||
|-------------------------------|-------------o||
|-------------------------------|-------5--4---||
|-2-----------------------------|-5-----3--2---||
|-0-0-0-0-0-0-0-0-0-0-0-0-0-0-0-|-3--0--------o||
|-------------------------------|--------------||


    Gtr III
      PM------------------------|       PM--|   PM|   PM
    E S S S S S S S S S S S S S S   E S S S S E S S S S Q
||--------------------------------|-------------------------|
||o-------------------------------|-------------------------|
||--------------------------------|-------------------------|
||--------------------------------|-------------------------|
||o-2-----------------------------|-3---------4---------5\--|
||--0-0-0-0-0-0-0-0-0-0-0-0-0-0-0-|-1-0-0-0-0-2-0-0-0-0-3\--|


    PM------------------------|       PM    PM
  E S S S S S S S S S S S S S S   E E E E E E Q   4x
|-------------------------------|-----------------||
|-------------------------------|----------------o||
|-------------------------------|-----------------||
|-------------------------------|-------5S4---3---||
|-2-----------------------------|-4S5---3S2-0-1--o||
|-0-0-0-0-0-0-0-0-0-0-0-0-0-0-0-|-2S3-0-----------||


      PM------------------------|
    E S S S S S S S S S S S S S S   E S S S S E S S S S Q
||--------------------------------|-------------------------
||o-------------------------------|-------------------------
||--------------------------------|-------------------------
||--2-----------------------------|-3---------4---------5\--
||o-0-0-0-0-0-0-0-0-0-0-0-0-0-0-0-|-1-0-0-0-0-2-0-0-0-0-3\--
||--------------------------------|-------------------------


    PM------------------------|      PM
  E S S S S S S S S S S S S S S   Q  q  Q  Q
|-------------------------------|--------------||
|-------------------------------|-------------o||
|-------------------------------|-------5--4---||
|-2-----------------------------|-5-----3--2---||
|-0-0-0-0-0-0-0-0-0-0-0-0-0-0-0-|-3--0--------o||
|-------------------------------|--------------||


  Q=220
 4/4
  Gtr I
    PM--------------------------|       PM--|   PM|   PM
  E S   S S S S S S S S S S S S S   E S S S S E S S S S Q
|---------------------------------|-------------------------|
|---------------------------------|-------------------------|
|---------------------------------|-------------------------|
|---------------------------------|-------------------------|
|-2-------------------------------|-3---------4---------5\--|
|-0-0---0-0-0-0-0-0-0-0-0-0-0-0-0-|-1-0-0-0-0-2-0-0-0-0-3\--|
|
| Gtr II
| E H..                             W
|---------------------------------|-------------------------|
|---------------------------------|-------------------------|
|---------------------------------|-------------------------|
|---------------------------------|-------------------------|
|-2-------------------------------|-------------------------|
|-0-------------------------------|-------------------------|


    PM------------------------|       PM    PM
  E S S S S S S S S S S S S S S   E E E E E E Q
|-------------------------------|----------------|
|-------------------------------|----------------|
|-------------------------------|----------------|
|-------------------------------|-------5S4---3--|
|-2-----------------------------|-4S5---3S2-0-1--|
|-0-0-0-0-0-0-0-0-0-0-0-0-0-0-0-|-2S3-0----------|
|
| W                               W
|-------------------------------|----------------|
|-------------------------------|----------------|
|-------------------------------|----------------|
|-------------------------------|----------------|
|-------------------------------|----------------|
|-------------------------------|----------------|


  Q=220
 4/4
  Gtr I
    PM--------------------------|       PM--|   PM|   PM
  E S   S S S S S S S S S S S S S   E S S S S E S S S S Q
|---------------------------------|-------------------------|
|---------------------------------|-------------------------|
|---------------------------------|-------------------------|
|---------------------------------|-------------------------|
|-2-------------------------------|-3---------4---------5\--|
|-0-0---0-0-0-0-0-0-0-0-0-0-0-0-0-|-1-0-0-0-0-2-0-0-0-0-3\--|
|
| Gtr II
| E H..                             E Q       E Q       Q
|---------------------------------|-------------------------|
|---------------------------------|-------------------------|
|---------------------------------|-------------------------|
|---------------------------------|-------------------------|
|-2-------------------------------|-3---------4---------5\--|
|-0-------------------------------|-1---------2---------3\--|


    PM------------------------|       PM    PM
  E S S S S S S S S S S S S S S   E E E E E E Q
|-------------------------------|----------------|
|-------------------------------|----------------|
|-------------------------------|----------------|
|-------------------------------|-------5S4---3--|
|-2-----------------------------|-4S5---3S2-0-1--|
|-0-0-0-0-0-0-0-0-0-0-0-0-0-0-0-|-2S3-0----------|
|
| W                               W
|-------------------------------|----------------|
|-------------------------------|----------------|
|-------------------------------|----------------|
|-------------------------------|----------------|
|-------------------------------|----------------|
|-------------------------------|----------------|


  Q=120
  Gtr I
  +W           +H     Q  Q
|------------|--------------|
|------------|--------------|
|------------|--------------|
|-(3)--------|-(3)----------|
|-(1)--------|-(1)----3--5--|
|------------|--------1--3--|
|
|  W            W
|------------|--------------|
|------------|--------------|
|------------|--------------|
|------------|--------------|
|------------|--------------|
|------------|--------------|


  Gtr III
  W            +W      9x
|----------||----------||
|----------||o--------o||
|----------||----------||
|----------||----------||
|-2--------||o-(2)----o||
|-0--------||--(0)-----||


Duration Legend
---------------
W - whole; H - half; Q - quarter; E - 8th; S - 16th;
T - 32nd; X - 64th; a - acciaccatura
+ - note tied to previous; . - note dotted; .. - note double dotted
Uncapitalized letters represent notes that are staccato (1/2 duration)
Irregular groupings are notated above the duration line
Duration letters will always appear directly above the note/fret number it
represents the duration for.  Duration letters with no fret number below them
represent rests.  Multi-bar rests are notated in the form Wxn, where n is the
number of bars to rest for.  Low melody durations appear below the staff

Tablature Legend
----------------
 h   - hammer-on
 p   - pull-off
 b   - bend
 pb  - pre-bend
 r   - bend release (if no number after the r, then release immediately)
 /\  - slide into or out of (from/to "nowhere")
 s   - legato slide
 S   - shift slide
<n>  - natural harmonic
[n]  - artificial harmonic
n(n) - tapped harmonic
 ~   - vibrato
 tr  - trill
 T   - tap
 TP  - trem. picking
 PM  - palm muting
\n/  - tremolo bar dip; n = amount to dip
 \n  - tremolo bar down
 n/  - tremolo bar up
/n\  - tremolo bar inverted dip
 =   - hold bend; also acts as connecting device for hammers/pulls
 <>  - volume swell (louder/softer)
 x   - on rhythm slash represents muted slash
 o   - on rhythm slash represents single note slash

Misc Legend
-----------
 |  - bar
||  - double bar
||o - repeat start
o|| - repeat end
*|  - double bar (ending)
 :  - bar (freetime)
 $  - Segno
 &  - Coda
Tempo markers - <E/E./Q/Q./H/H.> = BPM(8/16=s8/s16),
where s8 = swing 8ths, s16 = swing 16ths

  Visit MetalTabs.com for more metal tablature

bottom separator

Contact Us | Privacy Policy | Disclaimer | Legal Notice
Copyright © 2001-2014 MetalTabs.com. All Rights Reserved.