top separator

Home

Forum

What's New

Submit a Tab

FAQ

Links

Contact Us

Link to Us

MuSpy.com

MetalTabs.com logo

Bands

0-9

A

B

C

D

E

F

G

H

I

J

K

L

M

N

O

P

Q

R

S

T

U

V

W

X

Y

Z

Search

What

Where
 

Darkside (AT) - "Legend Of The Gods" Guitar Tab

Plain Text Version
More Darkside (AT) Tabs

Hits: 2296
Rated: 5.00 out of 5 (1 vote)
Updated: 2005-01-31 06:02:10

 

By:

Zombie Clown

sendpm.gif

email.gif

Important note
This tab is available online because we obtained explicit permission from Darkside (AT) or their label.


#----------------------------------PLEASE NOTE---------------------------------#
#This file is the author's own work and represents their interpretation of the #
#song. You may only use this file for private study, scholarship, or research. #
#Unless specified otherwise, this is NOT an official tab from the band members.#
#------------------------------------------------------------------------------#

  Visit MetalTabs.com for more metal tablature
  
Band: Darkside
Album: Cognitive Dissonance
Song: Legend of the Gods

Copyright (c)  (Season of Mist) (2001)
Version 1.0 - (2005)

Transcribed By: Zombie Clown
Email:          bobnoboborjimnobobgoat@yahoo.com


.  - palm mute           /  - slide up to
  - slide down to       ~  - vibrato
h  - hammer on           b  - Bend
p  - pull off            Suffixes for bend
t  - tap                 f  - full bend    h - half bend
ph - pinched harmonic    q  - quarter bend t - tap bend
*  - see comment         ^  - Hold bend    r release bend
x  - Stuccatto           ~  - vibrato bend
,  - slight palm mute    () - ghost note, sustained note
"  - tremolo note        <> - Trill

Tunning E A D G B E

verse

|-----------------|
|-----------------|
|-----------------|
|-----------------|
|-3-3-3-3-3-3-3-3-|
|-1-1-1-1-1-1-1-1-| x4
  . . . . . . . .

verse fill

|----------------|
|----------------|
|----------------|
|----------------|
|3-3-3-5-7-9-8-9-|
|1-1-1-3-5-7-6-7-|
 . . . . . . . .

chorus

guitar 1

|---------18bf-rh-bh-rh-bh-rh-bh-r-|
|-16bf-r----------------------------|
|-----------------------------------|
|-----------------------------------|
|-----------------------------------|
|-----------------------------------|

|----22bh-r-bh------------------------15--/--|
|---------------------------------------------|
|----------------11bh-r-bh---8bh-r-bh---------|
|---------------------------------------------|
|---------------------------------------------|
|---------------------------------------------|

guitar 2

|------------------------|
|------------------------|
|------------------------|
|------------------3phh5-|
|-0--0--2phh4-0--0-------|
|-0--0--------0--0-------|
  .  .        .  .

second part of chorus

both guitars

|---------------------------------|---------------------------------|
|---------------------------------|---------------------------------|
|---------------------------------|---------------------------------|
|-3-2-0-0-3-2-0-0-3-2-0-0-3-2-0-0-|-3-2-0-0-3-2-0-0-3-2-0-0-3-2-0-0-|
|---------------------------------|---------------------------------|
|---------------------------------|---------------------------------|
  . . . . . . . . . . . . . . . .   . . . . . . . . . . . . . . . .

|---------------------------------|---------------------------------|
|---------------------------------|---------------------------------|
|---------------------------------|---------------------------------|
|---------------------------------|---------------------------------|
|-3-2-0-0-3-2-0-0-3-2-0-0-3-2-0-0-|-3-2-0-0-3-2-0-0-3-2-0-0-3-2-0-0-|
|---------------------------------|---------------------------------|
  . . . . . . . . . . . . . . . .   . . . . . . . . . . . . . . . .

|---------------------------------|---------------------------------|
|---------------------------------|---------------------------------|
|---------------------------------|---------------------------------|
|-3-2-0-0-3-2-0-0-3-2-0-0-3-2-0-0-|-3-2-0-0-3-2-0-0-3-2-0-0-3-2-0-0-|
|---------------------------------|---------------------------------|
|---------------------------------|---------------------------------|
  . . . . . . . . . . . . . . . .   . . . . . . . . . . . . . . . .

|---------------------------------|---------------------------------|
|---------------------------------|---------------------------------|
|---------------------------------|---------------------------------|
|---------------------------------|---------------------------------|
|-3-2-0-0-3-2-0-0-3-2-0-0-3-2-0-0-|-3-2-0-0-3-2-0-0-3-2-0-0-3-2-0-0-|
|---------------------------------|---------------------------------|
  . . . . . . . . . . . . . . . .   . . . . . . . . . . . . . . . .

|---------------------------------|---------------------------------|
|---------------------------------|---------------------------------|
|-3-2-0-0-3-2-0-0-3-2-0-0-3-2-0-0-|-3-2-0-0-3-2-0-0-3-2-0-0-3-2-0-0-|
|---------------------------------|---------------------------------|
|---------------------------------|---------------------------------|
|---------------------------------|---------------------------------|
  . . . . . . . . . . . . . . . .   . . . . . . . . . . . . . . . .

|---------------------------------|---------------------------------|
|---------------------------------|---------------------------------|
|---------------------------------|---------------------------------|
|-3-2-0-0-3-2-0-0-3-2-0-0-3-2-0-0-|-3-2-0-0-3-2-0-0-3-2-0-0-3-2-0-0-|
|---------------------------------|---------------------------------|
|---------------------------------|---------------------------------|
  . . . . . . . . . . . . . . . .   . . . . . . . . . . . . . . . .

|---------------------------------|---------------------------------|
|---------------------------------|---------------------------------|
|-3-2-0-0-3-2-0-0-3-2-0-0-3-2-0-0-|-3-2-0-0-3-2-0-0-3-2-0-0-3-2-0-0-|
|---------------------------------|---------------------------------|
|---------------------------------|---------------------------------|
|---------------------------------|---------------------------------|
  . . . . . . . . . . . . . . . .   . . . . . . . . . . . . . . . .

|---------------------------------|---------------------------------|
|---------------------------------|---------------------------------|
|---------------------------------|---------------------------------|
|-3-2-0-0-3-2-0-0-3-2-0-0-3-2-0-0-|-3-2-0-0-3-2-0-0-3-2-0-0-3-2-0-0-|
|---------------------------------|---------------------------------|
|---------------------------------|---------------------------------|
  . . . . . . . . . . . . . . . .   . . . . . . . . . . . . . . . .

bridge

both guitars
                        1          2
|---------------:||------------|----------------|
|---------------:||------------|----------------|
|---------------:||------------|----------------|
|-3"------------:||-3"-------7-|-3"-----5-3-2-3-|
|-1"------------:||-1"-------5-|-1"-----3-1-0-1-|
|---------------:||------------|----------------|

bridge part 2

both guitars

|-------------------------------------|
|------5--------5--------5--------6---|
|------7bh------7bh------7bh------8bh-|
|-------------------------------------|
|-------------------------------------|
|-0-0------0-0------0-0------0-0------|
  . .      . .      . .      . .

|-------------------------------------|
|------5--------5--------5--------6---|
|------7bh------7bh------7bh------8bh-|
|-------------------------------------|
|-------------------------------------|
|-0-0------0-0------0-0------0-0------|
  . .      . .      . .      . .

|--------------------------------------|
|------9--------9--------9--------10---|
|------11bh-----11bh-----11bh-----12bh-|
|--------------------------------------|
|--------------------------------------|
|-0-0------0-0------0-0------0-0-------|
  . .      . .      . .      . .
|---------------------------------------|
|------9--------9--------9--------10----|
|------11bh-----11bh-----11bh-----12bw^-|
|---------------------------------------|
|---------------------------------------|
|-0-0------0-0------0-0------0-0--------|
  . .      . .      . .      . .

  Visit MetalTabs.com for more metal tablature

bottom separator

Contact Us | Privacy Policy | Disclaimer | Legal Notice
Copyright © 2001-2014 MetalTabs.com. All Rights Reserved.