top separator

Home

Forum

What's New

Submit a Tab

FAQ

Links

Contact Us

Link to Us

MuSpy.com

MetalTabs.com logo

Bands

0-9

A

B

C

D

E

F

G

H

I

J

K

L

M

N

O

P

Q

R

S

T

U

V

W

X

Y

Z

Search

What

Where
 

Damageplan - "Breathing New Life" Guitar Tab

Plain Text Version
More Damageplan Tabs

Hits: 10201
Rated: 4.78 out of 5 (9 votes)
Updated: 2005-01-12 09:10:21

 

By:

younguitarist

sendpm.gif

email.gif

Important note
We did our best to reach Damageplan and ask for their permission to publish this tab. Unfortunately they did not respond to our requests or we could not find a way to contact them. This tab is available online until Damageplan tells us to take it down.


#----------------------------------PLEASE NOTE---------------------------------#
#This file is the author's own work and represents their interpretation of the #
#song. You may only use this file for private study, scholarship, or research. #
#Unless specified otherwise, this is NOT an official tab from the band members.#
#------------------------------------------------------------------------------#

  Visit MetalTabs.com for more metal tablature
  
BREATHING NEW LIFE
                            As recorded by Damageplan
                      (From the 2004 Album NEW FOUND POWER)

Words and Music by Damageplan
Transcribed by Alvaro(lazyguitarist@gmail.com)
solo by slaya (cbliss66@dtnspeed.com)

Gtr I (Db Gb B E Ab Db) -  Dimebag


Riff 1
    Gtr I
||--------------|-------------|-------------|-----------------||
||o-------------|-------------|-------------|----------------o||
||--------------|-------------|-------------|-----------------||
||--------------|-------------|-------------|-----------------||2x
||o-5-6-3-4-3-2-|-5-6-3-4-3-2-|-5-6-3-4-3-2-|-5-6-3-4-7-8----o||
||--3-4-1-2-1-0-|-3-4-1-2-1-0-|-3-4-1-2-1-0-|-3-4-1-2-5-6-----||



Riff 2
||-------------|----------|------------|----------||
||o------------|----------|------------|------2--o||
||-------------|-3--------|------------|-3--------||
||-------------|----------|------------|----------||2x
||o------------|----------|------------|---------o||
||--0------2h3-|----------|-0------2h3-|----------||


Riff 3
    PM------------|
||----------------------------|-------------|
||o---------------------------|-------------|
||----------------------------|------3------|
||----------------------------|-------------|
||o-----------------2-(2)-4-5-|-(5)---------|
||--0-0-0-0-0-0-0-0-0-(0)-2-3-|-(3)---------|

Riff 4
  PM------------|
|---------------------------|--------------||
|---------------------------|-------------o||
|---------------------------|---3----6-----||
|---------------------------|--------------||
|-----------------2-(2)-4-5-|-5---8-------o||
|-0-0-0-0-0-0-0-0-0-(0)-2-3-|-3---6--------||


Repeat
Riff 3
Riff 4


Riff 5
                ~~~~~~~~                       ~~~~~~~~    ~
|-----------------|------------|-----------------|-------------|
|-----------------|------------|-----------------|-------------|
|-----------------|------------|-----------------|-------------|
|-----------------|------------|-----------------|-------------|
|-/7--/7----5-----|------------|-/7--/7----5-----|-------------|
|---------7---7-6-|-(6)--------|---------7---7-6-|-6-3--0--3---|

Riff 6
                ~~~~~~~~
|-----------------|------------|-------------------|
|-----------------|------------|-------------------|
|-----------------|------------|-------------------|
|-----------------|------------|-------------------|
|-/7--/7----5-----|------------|-/7--/7-------5----|
|---------7---7-6-|-(6)--------|-----------/7---7--|



Repeat
Riff 1
Riff 2 2x
Riff 3
Riff 4
Riff 3
Riff 4
Riff 5
Riff 6
Riff 1 2x


 Guitar solo
       ~~~~~~~~~~~~~~~~~             ~~
|-----24----(24)-|-(24)--------|----24----|
|----------------|-------------|----------|
|----------------|-------------|----------|
|----------------|-------------|----------|
|-2--------------|-------------|-2--------|
|-0--------------|-------------|-0--------|


    ~~~~~~~~~~~~~~~~       ~~~~~~~~~~~~~~~~~
|-(24)---19----(19)-|-----24----(24)-|-(24)----|
|-------------------|----------------|---------|
|-------------------|----------------|---------|
|-------------------|----------------|---------|
|-------------------|-2--------------|---------|
|-------------------|-0--------------|---------|


      ~~~~~~~~~~~~~~~~~~~
|----24------|-(24)---19-------------|----------------------------|
|------------|-----------------------|----------------------------|
|------------|-----------------------|-12b13========12b13=========|
|------------|-------------12b14-----|----------14----------14----|
|-2----------|-------------------\14-|-------------------------14-|
|-0----------|-----------------------|----------------------------|


|--------------------------------------|--------------------|
|--------------------------------------|----------------17--|
|-12b13=========12b13==================|==========14--------|
|---------14------------14-------------|----14-------14-----|
|------------13------------12-10h12p10-|-------13-----------|
|--------------------------------------|-12-----------------|


|----18----19b21=============|============================|
|-------17-------------------|----------------------------|
|-15-------------------------|-12b13========12b13=========|
|------------------12b13-----|----------14----------14----|
|------------------------\14-|-------------------------14-|
|----------------------------|----------------------------|


|--------------------------------------|
|--------------------------------------|
|-12b13=========12b13==================|
|---------14------------14-------------|
|------------13------------12-10h12p10-|
|--------------------------------------|


   PM------------|
|-------------------------------------------------|
|-------------------------------------------------|
|-------------------------------------16-17-16-17-|
|-------------------------14-15-14-15-------------|
|-------------13-14-13-14-------------------------|
|-12-13-12-13-------------------------------------|


|-------------18-19-18-19-22-22-22-22-19-18-22-22-22-22-19-18-|
|-17-18-17-18-------------------------------------------------|
|-------------------------------------------------------------|
|-------------------------------------------------------------|
|-------------------------------------------------------------|
|-------------------------------------------------------------|


Riff 7      A                               B
|-----------------------------|----------|-----*|
|-----------------------------|----------|-----*|
|-----------------------------|----------|-----*|
|-----------------------------|----------|-----*|
|-----------------------------|----------|--2--*|
|-/15\---/15\---/15\---/15\---|-/15s===8-|--0--*|


Riff 8
||----------------------------|
||o---------------------------|
||-----------------3----3---3-|
||----------------------------|
||o--(2)-4-5---(5)----5---5---|
||---(0)-2-3---(3)----3---3---|


Riff 9
|---------------------------|--------------||
|---------------------------|-------------o||
|---------------------------|---3----------||
|---------------------------|--------------||
|-----------------2-(2)-4-5-|-5---8-8-8---o||
|-0-0-0-0-0-0-0-0-0-(0)-2-3-|-3---6-6-6----||

Repeat
Riff 7 B
Riff 8

Riff 10                             ~
|--------------------------|--------------||
|--------------------------|-------------o||
|--------------------------|---3----6-----||
|--------------------------|--------------||
|----------------2-(2)-4-5-|-5---8-------o||
|-0--0--0--0--0--0-(0)-2-3-|-3---6--------||

Repeat
Riff 5
Riff 6
Riff 1 5x


Riff 11
|----------|
|----------|
|----------|
|----2--3--|3x
|-4--0--1--|
|-2--------|


The End..



Tablature Legend
----------------
 h   - hammer-on
 p   - pull-off
 b   - bend
 pb  - pre-bend
 r   - bend release (if no number after the r, then release immediately)
 /\  - slide into or out of (from/to "nowhere")
 s   - legato slide
 S   - shift slide
<n>  - natural harmonic
[n]  - artificial harmonic
n(n) - tapped harmonic
 ~   - vibrato
 tr  - trill
 T   - tap
 TP  - trem. picking
 PM  - palm muting
\n/  - tremolo bar dip; n = amount to dip
 \n  - tremolo bar down
 n/  - tremolo bar up
/n\  - tremolo bar inverted dip
 =   - hold bend; also acts as connecting device for hammers/pulls
 <>  - volume swell (louder/softer)
 x   - on rhythm slash represents muted slash
 o   - on rhythm slash represents single note slash

Misc Legend
-----------
 |  - bar
||  - double bar
||o - repeat start
o|| - repeat end
*|  - double bar (ending)
 :  - bar (freetime)
 $  - Segno
 &  - Coda

  Visit MetalTabs.com for more metal tablature

bottom separator

Contact Us | Privacy Policy | Disclaimer | Legal Notice
Copyright © 2001-2014 MetalTabs.com. All Rights Reserved.