top separator

Home

Forum

What's New

Submit a Tab

FAQ

Links

Contact Us

Link to Us

MetalTabs.com logo

Bands

0-9

A

B

C

D

E

F

G

H

I

J

K

L

M

N

O

P

Q

R

S

T

U

V

W

X

Y

Z

Search

What

Where
 

Crowbar - "The Lasting Dose" Bass Tab

Plain Text Version
More Crowbar Tabs

Hits: 5573
Rated: 3.25 out of 5 (4 votes)
Updated: 2005-01-12 09:09:52

 

By:

sendpm.gif

email.gif

Important note
This tab is available online because we obtained explicit permission from Crowbar or their label.


#----------------------------------PLEASE NOTE---------------------------------#
#This file is the author's own work and represents their interpretation of the #
#song. You may only use this file for private study, scholarship, or research. #
#Unless specified otherwise, this is NOT an official tab from the band members.#
#------------------------------------------------------------------------------#

  Visit MetalTabs.com for more metal tablature
  
Band: Crowbar
Song: The Lasting Dose
Album: Sonic Excess In Its Purest Form
Tabbed By: dirtyrottenimbeciles

Tuning: B-E-A-D-G


Intro

G |--------------------|
D |--------------------|
A |-5-3-----3-5--------|
E |-------5-----5-6----|
B |--------------------|


Verse

G |----------------------------------------|
D |----------------------------------------|
A |----------------------------------------|
E |-----------3-2-3-2----------------5-3/8-|
B |-5--5--3-5---------0--0-1--1--1-5-------|


Interlude

G |----------------------------|
D |----------------------------|
A |----------------------------|
E |-------5--3-5-3--------7----|
B |-5-0-5----------0-3--3------|

  Visit MetalTabs.com for more metal tablature

bottom separator

Contact Us | Privacy Policy | Disclaimer | Legal Notice
Copyright © 2001-2014 MetalTabs.com. All Rights Reserved.