top separator

Home

Forum

What's New

Submit a Tab

FAQ

Links

Contact Us

Link to Us

MuSpy.com

MetalTabs.com logo

Bands

0-9

A

B

C

D

E

F

G

H

I

J

K

L

M

N

O

P

Q

R

S

T

U

V

W

X

Y

Z

Search

What

Where
 

My Dying Bride - "The Whore, The Cook and the Mother" Guitar Tab

Plain Text Version
More My Dying Bride Tabs

Hits: 4218
Rated: 4.90 out of 5 (31 votes)
Updated: 2010-04-11 17:14:55

 

By:

Paddy

sendpm.gif

email.gif

Important note
This tab is available online because we obtained explicit permission from My Dying Bride or their label.


#----------------------------------PLEASE NOTE---------------------------------#
#This file is the author's own work and represents their interpretation of the #
#song. You may only use this file for private study, scholarship, or research. #
#Unless specified otherwise, this is NOT an official tab from the band members.#
#------------------------------------------------------------------------------#

  Visit MetalTabs.com for more metal tablature
  
================================================================================
                          M Y   D Y I N G   B R I D E

                                       -

       T H E   W H O R E,   T H E   C O O K   A N D   T H E   M O T H E R
================================================================================


                               37.788%... COMPLETE
                          (c) Peaceville Records (1998)
                           http://www.mydyingbride.org/


                              Tune Down 1 & 1/2 Steps
                                  C# F# B E G# C#

                                  Tempo = 124 BPM
                               Time Signature = 4/4



                          -----------------------------
                                  Transcribed by

                                  PADDY MCMULLAN
                            pmtabs (@t) gmail [dot] com

                                   Version 2.0
                                17th January 2010
                      (Corrections Outlined at Bottom of Tab)
                             -----------------------

                             Tablature Symbols Used:


 p         -  Pull-Off
 h         -  Hammer-On
 \         -  Slide Down to/Down From
 /         -  Slide Up To/Up From
 ( / )     -  Legato Slide
 14b15     -  Bend Note
 ~~~       -  Vibrato
 ( )       -  Ghost Note/Tied Note/Implied Note
 |__3__|   -  Triplet Notes
 |__[1,2]  -  Alternative Endings



                                   ===========
                                   Song  Notes
                                   ===========



 Guitar 1 and 5 use a simple stereo delay effect throughout which produces one
                     "echo" a quarter note later than played.



================================================================================
Intro: Guitar 1 with Heavy Distortion and Stereo Delay (Play once)
================================================================================


                                   |___3____|
||-------------------|-----------------------------|
||-------------------|-----------------------------|
||--9----------------|-(9)-------------12----------|
||--9----------------|-(9)------- /12-(12)---------|
||--7----------------|-(7)-------------------------|
||-------------------|-----------------------------|

     |___3____|
|----------------------------|---------------------||
|----------------------------|---------------------||
|--------14------------------|--14   b  15---------||
|-- /14-(14)-----------------|--14   b  15---------||
|----------------------------|---------------------||
|----------------------------|---------------------||



================================================================================
Section 1.1: Guitar 1 (Play 8 times)
================================================================================


    |__3__|  |__3__|  |__3__|  |__3__|
||--------------------------------------|
||--------------------------------------|
||--9--9--9--9--9--9--9--9--9--9--9--9--|
||--9--9--9--9--9--9--9--9--9--9--9--9--|
||--------------------------------------|
||--------------------------------------|

   |__3__|  |__3__|   |____3____|  |___3____|
|----------------------------------------------|
|----------------------------------------------|
|--9--9--9--9--9--9--------12--12--12--12--12--|
|--9--9--9--9--9--9-- /12--12--12--12--12--12--|
|----------------------------------------------|
|----------------------------------------------|

   |___3____|  |___3____|  |___3____|  |___3____|
|--------------------------------------------------|
|--------------------------------------------------|
|--14--14--14--14--14--14--14--14--14--14--14--14--|
|--14--14--14--14--14--14--14--14--14--14--14--14--|
|--------------------------------------------------|
|--------------------------------------------------|

   |___3____|         |___3____|
|__________________________________[1,3,5,7]
|----------------------------------------| |
|----------------------------------------| |
|--14--14--14--14  \  12--12--12--12  \  |*|
|--14--14--14--14  \  12--12--12--12  \  |*|
|----------------------------------------| |
|----------------------------------------| |


   |___3____|  |___3____|  |___3___|   |___3____|
|_____________________________________________[2,4,6,8]
|---------------------------------------------------| |
|---------------------------------------------------| |
|--14--14--14--14--14--14--14--14--14--14--14--14 \ |*|
|--14--14--14--14--14--14--14--14--14--14--14--14 \ |*|
|---------------------------------------------------| |
|---------------------------------------------------| |



================================================================================
Section 1.2: Guitars 2 and 3 with Heavy Distortion (Play 8 times)
================================================================================


    |_3__|  |_3__|  |_3__|          |_3__|  |_3__|  |_3__|
||-------------------------------|-------------------------------|
||-------------------------------|-------------------------------|
||-------------------------------|-------------------------------|
||-------------------------------|-------------------------------|
||--2----2--2----2--2----2--2----|--2----2--2----2--2----2--2----|
||--0----0--0----0--0----0--0----|--0----0--0----0--0----0--0----|


   |__3___|  |__3___|  |__3___|           |__3___|  |__3___|  |__3___|
|______________________________________________________________________[1,3,5,7]
|--------------------------------------|-------------------------------------| |
|--------------------------------------|-------------------------------------| |
|--------------------------------------|-------------------------------------|*|
|--------------------------------------|-------------------------------------|*|
|--10----10--10----10--10----10--10----|--10----10--10----10--10----10--10---| |
|--8-----8---8-----8---8-----8---8-----|--7-----7---7-----7---7-----7---7----| |


   |__3___|  |__3___|  |__3___|           |__3___|  |__3___|  |__3___|
|____________________________________________________________________[2,6]
|--------------------------------------|-------------------------------| |
|--------------------------------------|-------------------------------| |
|--------------------------------------|-------------------------------|*|
|--------------------------------------|-------------------------------|*|
|--10----10--10----10--10----10--10----|--7----7--7----7--7----7--7----| |
|--8-----8---8-----8---8-----8---8-----|--5----5--5----5--4----4--4----| |


   |__3__|  |__3___|  |__3___|                |__3___|  |__3___|
|_______________________________________________________________________[4,8]
|------------------------------------------|------------------------------| |
|------------------------------------------|------------------------------| |
|------------------------------------------|------------------------------|*|
|------------------------------------------|------------------------------|*|
|--10---10--10----10--10----10---(10 /12)--|--12----12--12----12--12------| |
|--8----8---8-----8---8-----8----(8  /10)--|--10----10--10----10--10------| |



================================================================================
Section 2.1: Guitar 1 (Play 8 times)
================================================================================


    |__3___|  |___3____|  |__3___|  |___3____|
||-----------------------------------------------|
||-----------------------------------------------|
||--11----11--11--11--11--11----11--11--11--11 \ |
||--11----11--11--11--11--11----11--11--11--11 \ |
||--9-----9---9---9---9---9-----9---9---9---9  \ |
||-----------------------------------------------|

   |__3_|  |__3__|  |__3_|  |__3__|
|-------------------------------------| |
|-------------------------------------| |
|--9----9--9--9--9--9----9--9--9--9 / |*|
|--9----9--9--9--9--9----9--9--9--9 / |*|
|--7----7--7--7--7--7----7--7--7--7 / | |
|-------------------------------------| |



================================================================================
Section 2.2: Guitar 5 with Heavy Distortion and Stereo Delay (Play once)
================================================================================


||----------------------|----------------------|----------------------|
||----------------------|----------------------|----------------------|
||----------------------|----------------------|--16--------18--------|
||--16--------18--------|--19--------18--------|----------------------|
||----------------------|----------------------|----------------------|
||----------------------|----------------------|----------------------|


                                  |___3____|         |____3___|
|------------------------|---------------------------------------|
|------------------------|---------------------------------------|
|--19~~-------18~~-------|------------16------19~~-------16------|
|------------------------|--16----16-(16)-16---------16-(16)-16--|
|------------------------|---------------------------------------|
|------------------------|---------------------------------------|


              |______3_____|             |___3____|         |____3___|
|-------------------------------|---------------------------------------|
|-------------------------------|---------------------------------------|
|-------------------------------|------------16------19~~-------16------|
|--18~~-------19----19----18----|--16----16-(16)-16---------16-(16)-16--|
|-------------------------------|---------------------------------------|
|-------------------------------|---------------------------------------|


               |______3_____|             |___3____|         |____3___|
|-------------------------------|----------------------------------------|
|-------------------------------|----------------------------------------|
|-------------------------------|-------------16------19~~-------16------|
|--18~~-------19----19----18----|--19~~---16-(16)-16---------16-(16)-16--|
|-------------------------------|----------------------------------------|
|-------------------------------|----------------------------------------|


              |______3_____|             |___3____|         |____3___|
|-------------------------------|---------------------------------------|
|-------------------------------|---------------------------------------|
|-------------------------------|------------16------19~~-------16------|
|--18~~-------19----19----18----|--16----16-(16)-16---------16-(16)-16--|
|-------------------------------|---------------------------------------|
|-------------------------------|---------------------------------------|


              |______3_____|
|-------------------------------|----------------------|----------------------|
|-------------------------------|----------------------|----------------------|
|-------------------------------|------------18--------|--16--------19--------|
|--18~~-------19----19----18----|--16------------------|----------------------|
|-------------------------------|----------------------|----------------------|
|-------------------------------|----------------------|----------------------|


              |______3_____|     |_______3_____|    |_____3______|
|------------------------------|--------------------------------------||
|------------------------------|--------------------------------------||
|--18~~------------------------|--------------------------------------||
|------------------19----18----|--18----19----19----19----19----18----||
|------------------------------|--------------------------------------||
|------------------------------|--------------------------------------||


|--------------------|-------------------||
|--------------------|-------------------||
|--------------------|-------------------||
|--14----------------|--(14)-------------||
|--------------------|-------------------||
|--------------------|-------------------||



================================================================================
Repeat Section 1
================================================================================

================================================================================
Repeat Section 2
================================================================================

================================================================================
Section 3: Guitars 2 and 3 (Play 4 times) [ Tempo = 92 BPM ]
================================================================================


||-------------------||------------------------|-----------------------|
||-------------------||------------------------|-----------------------|
||--9----------------||-(9)-------9--8---------|-----------------------|
||--9----------------||-(9)-------9--8--10--9--|-(9)----------------3--|
||--7----------------||-(7)-------7--6--10--9--|-(9)----------7--5--3--|
||--0----------------||-(0)-------------8---7--|-(7)----------5--3--1--|
                                                              ....

|-----------------------|-------------------| |
|-----------------------|-------------------| |
|-----------------------|-------------------|*|
|-(3)-------------------|-------------------|*|
|-(3)----------6--5--2--|-(2)---------------| |
|-(1)----------4--3--0--|-(0)---------------| |



After the first time ignore the first bar and replace the second bar with the
following:


||-----------|
||-----------|
||-----------|
||-----------|
||--(2)------|
||--(0)------|



Allow the last bar to ring out



================================================================================
Interlude: Guitar 4 (Play twice) [ Tempo = 124 BPM ]
================================================================================


* Let notes ring wherever possible *


=======
Part 1: x 2
=======


    |____3____|    |____3____|       |____3____|    |____3____|
||--2--------------2--------------|--2--------------2--------------|
||-------0--------------0---------|-------0--------------0---------|
||------------0--------------0----|------------0--------------0----|
||--------------------------------|--------------------------------|
||--------------------------------|--------------------------------|
||--------------------------------|--------------------------------|


   |____3____|    |____3____|       |____3____|    |____3____|
|--5--------------3--------------|--2--------------3--------------|
|-------0--------------0---------|-------0--------------0---------|
|------------0--------------0----|------------0--------------0----|
|--------------------------------|--------------------------------|
|--------------------------------|--------------------------------|
|--------------------------------|--------------------------------|


   |____3____|    |____3____|       |____3____|    |____3____|
|--2--------------2--------------|--2--------------2--------------|
|-------2--------------2---------|-------2--------------2---------|
|------------3--------------3----|------------3--------------3----|
|--------------------------------|--------------------------------|
|--------------------------------|--------------------------------|
|--------------------------------|--------------------------------|


   |____3____|    |____3____|       |____3____|    |____3____|
|--2--------------2--------------|--2--------------2--------------| |
|-------2--------------2---------|-------2--------------2---------| |
|------------3--------------3----|------------3--------------3----|*|
|--------------------------------|--------------------------------|*|
|--------------------------------|--------------------------------| |
|--------------------------------|--------------------------------| |



=======
Part 2: x 2
=======


    |____3____|    |____3____|       |____3____|    |____3____|
||--5--------------5--------------|--3--------------3--------------|
||-------0--------------0---------|-------0--------------0---------|
||------------0--------------0----|------------0--------------0----|
||--------------------------------|--------------------------------|
||--------------------------------|--------------------------------|
||--------------------------------|--------------------------------|


   |____3____|    |____3____|       |____3____|    |____3____|
|--2--------------2--------------|--5--------------3--------------|
|-------0--------------0---------|-------0--------------0---------|
|------------0--------------0----|------------0--------------0----|
|--------------------------------|--------------------------------|
|--------------------------------|--------------------------------|
|--------------------------------|--------------------------------|


   |____3____|    |____3____|       |____3____|    |____3____|
|--2--------------2--------------|--2--------------2--------------|
|-------2--------------2---------|-------2--------------2---------|
|------------2--------------2----|------------2--------------2----|
|--------------------------------|--------------------------------|
|--------------------------------|--------------------------------|
|--------------------------------|--------------------------------|


   |____3____|    |____3____|       |____3____|    |____3____|
|--2--------------2--------------|--2--------------2--------------| |
|-------2--------------2---------|-------2--------------2---------| |
|------------2--------------2----|------------2--------------2----|*|
|--------------------------------|--------------------------------|*|
|--------------------------------|--------------------------------| |
|--------------------------------|--------------------------------| |



=======
Part 3: x 2
=======


    |____3____|    |____3____|       |____3____|    |____3____|
||--3--------------3--------------|--5--------------5--------------|
||-------0--------------0---------|-------0--------------0---------|
||------------0--------------0----|------------0--------------0----|
||--------------------------------|--------------------------------|
||--------------------------------|--------------------------------|
||--------------------------------|--------------------------------|

   |____3____|    |____3____|       |____3____|    |____3____|
|--7--------------7--------------|--9--------------10-------------|
|-------0--------------0---------|-------0--------------0---------|
|------------0--------------0----|------------0--------------0----|
|--------------------------------|--------------------------------|
|--------------------------------|--------------------------------|
|--------------------------------|--------------------------------|

   |_____3____|    |_____3____|       |_____3____|    |_____3____|
|--12--------------12--------------|--12--------------12--------------|
|--------0---------------0---------|--------0---------------0---------|
|-------------0---------------0----|-------------0---------------0----|
|----------------------------------|----------------------------------|
|----------------------------------|----------------------------------|
|----------------------------------|----------------------------------|

   |____3____|    |____3____|       |____3____|    |____3____|
|--10-------------10-------------|--10-------------10-------------| |
|-------0--------------0---------|-------0--------------0---------| |
|------------0--------------0----|------------0--------------0----|*|
|--------------------------------|--------------------------------|*|
|--------------------------------|--------------------------------| |
|--------------------------------|--------------------------------| |



=======
Part 4: x 4
=======


    |_____3____|    |_____3____|       |____3____|    |____3____|
||--12--------------12--------------|--10-------------10-------------|
||--------0---------------0---------|-------0--------------0---------|
||-------------0---------------0----|------------0--------------0----|
||----------------------------------|--------------------------------|
||----------------------------------|--------------------------------|
||----------------------------------|--------------------------------|


   |____3____|    |____3____|       |____3____|    |____3____|
|--9--------------9--------------|--7--------------5--------------| |
|-------0--------------0---------|-------0--------------0---------| |
|------------0--------------0----|------------0--------------0----|*|
|--------------------------------|--------------------------------|*|
|--------------------------------|--------------------------------| |
|--------------------------------|--------------------------------| |



=======
Part 5: x 1
=======


    |____3____|    |____3____|       |____3____|    |____3____|
||--3--------------3--------------|--3--------------3--------------|
||-------0--------------0---------|-------0--------------0---------|
||------------0--------------0----|------------0--------------0----|
||--------------------------------|--------------------------------|
||--------------------------------|--------------------------------|
||--------------------------------|--------------------------------|


   |____3____|    |____3____|       |____3____|    |____3____|
|--3--------------3--------------|--3--------------3--------------||
|-------0--------------0---------|-------0--------------0---------||
|------------0--------------0----|------------0--------------0----||
|--------------------------------|--------------------------------||
|--------------------------------|--------------------------------||
|--------------------------------|--------------------------------||



================================================================================
Repeat Section 1
================================================================================

================================================================================
Repeat Section 2
================================================================================

================================================================================
Repeat Section 3
================================================================================

================================================================================
End
================================================================================


Tab summary:        Intro x 1
                    Section 1 x 8
                    Section 2 x 8
                    Section 1 x 8
                    Section 2 x 8
                    Section 3 x 4
                    Interlude x 2
                    Section 1 x 8
                    Section 2 x 8
                    Section 3 x 4

                    END


-------------------------
Corrections (17/01/2010):
-------------------------

* Completely retabbed from scratch

  Visit MetalTabs.com for more metal tablature

bottom separator

Contact Us | Privacy Policy | Disclaimer | Legal Notice
Copyright © 2001-2014 MetalTabs.com. All Rights Reserved.