top separator

Home

Forum

What's New

Submit a Tab

FAQ

Links

Contact Us

Link to Us

MetalTabs.com logo

Bands

0-9

A

B

C

D

E

F

G

H

I

J

K

L

M

N

O

P

Q

R

S

T

U

V

W

X

Y

Z

Search

What

Where
 

Bloodbath - "Brave New Hell" Guitar Tab

Plain Text Version
More Bloodbath Tabs

Hits: 12356
Rated: 4.78 out of 5 (9 votes)
Updated: 2005-01-12 08:57:28

 

By:

zephyon

sendpm.gif

email.gif

Important note
This tab is available online because we obtained explicit permission from Bloodbath or their label.


#----------------------------------PLEASE NOTE---------------------------------#
#This file is the author's own work and represents their interpretation of the #
#song. You may only use this file for private study, scholarship, or research. #
#Unless specified otherwise, this is NOT an official tab from the band members.#
#------------------------------------------------------------------------------#

  Visit MetalTabs.com for more metal tablature
  
BLOODBATH - BRAVE NEW WORLD
                        From the Album NIGHTMARES MADE FLESH
                        Copyright Vile Music 2004
                        Version 1.0 - JAN '05

Transcribed by: Ryan Forsyth

For Questions, Comments, Newest Version, or Corrections contact
     Ryan: at zephyon@gmail.com

.  - palm mute                  /  - slide up to
\  - slide down to              ~  - vibrato
h  - hammer on                  b  - bend
p  - pull off                   Suffixes for bend
ph - pinch harmonic             f - full bend    h - half bend
*  - see comment                r - release      t - tap bend
X  - percussion mute            ~ - vibrato bend
@  - slight palm mute           () - ghost note, sustained note


Tuning B (B,E,A,D,F#,B)

BLOODBATH - BRAVE NEW WORLD


Riff 1 (twice)
     . . .    .         . . .              . . .    .
|-----------------------------------------------------------
|-----------------------------------------------------------
|-----------------------------------------------------------
|-----------------------------------------------------------
|-2--2-2-2-3--2-3-6--2--2-2-2-3--6-5-3--2--2-2-2-3--2-3-6---
|-0--0-0-0-1--0-1-4--0--0-0-0-1--4-3-1--0--0-0-0-1--0-1-4---


------------------------ ||
------------------------ ||
----11-12-11-----10-----.||
-9--9--10-9--12--8--11--.||
-7-----------10-----9--- ||
------------------------ ||

Riff 2 (twice)

|------------------------------------------------------------------------- ||
|------------------------------------------------------------------------- ||
|-------------------------------------------------------------------------.||
|-------------------------------7-8-7-------------------------------------.||
|----------7-8-7-5-----------10----------------7-8-7-5-------------------- ||
|-00000000----------66666666----------00000000---------66666666-33556655-- ||

Riff 3 (4 times)
    . . .      . .  . .
------------------------------ ||
------------------------------ ||
------------------------------.||
----------3--3----------4-----.||
-2--2-2-2-1--1-4-3--3-3-2-4--- ||
-0--0-0-0------2-1--1-1---2--- ||


Riff 4 (twice)
                                                              . .    . .
|---------------------------------------------------------------------------- ||
|---------------------------------------------------------------------------- ||
|----------------------------------------------------------------------------.||
|----------------------------------------------------------------------------.||
|------------------2233222222222222222------------------------2-3-2--2-3-2--- ||
|-444444443333-0011-------------------------444444443333-0011-0-1-0--0-1-0--- ||


Riff 5 (twice)
          . .                   . . . .     . .
|--------------------------------------------------- ||
|--------------------------------------------------- ||
|---------------------------------------------------.||
|-------------4-5-4---------------------------------.||
|-6----5--2-3-2-3-2-----6----5--2-3-2-3-2---2-3-2--- ||
|-4----3--0-1-2-3-2-----4----3--0-1-0-1-0---0-1-0--- ||


Riff 1 (twice)
Riff 2 (twice)
Riff 3 (4 times)
Riff 4 (twice)
Riff 5 (twice)

Riff 6(once)
|----------------------------------------------------------------------
|----------------------------------------------------------------------
|----------------------------------------------------------------------
|----------------------------------------------------------------------
|-0h7h10-0h7h10-0h7h10-0h6h90h6h9-0h7h10-0h7h10-0h7h10-0h11h130h11h13--
|----------------------------------------------------------------------
| .                               .
|----------------------------------------------------------------------
|----------------------------------------------------------------------
|----------------------------------------------------------------------
|-----------------------------8----------------------------------------
|-2---------------------------6---2---------------------------8--------
|-0-------------------------------0---------------------------6--------

|---------------------------------------------------------------------- ||
|---------------------------------------------------------------------- ||
|----------------------------------------------------------------------.||
|----------------------------------------------------------------------.||
|-0h7h10-0h7h10-0h7h10-0h6h90h6h9--0h7h10-0h7h10-0h7h10-0h11h130h11h13- ||
|---------------------------------------------------------------------- ||
| .                                .
|---------------------------------------------------------------------- ||
|---------------------------------------------------------------------- ||
|----------------------------------------------------------------------.||
|----------------------------------------------------------------------.||
|-2--------------------------------2---------------------------5-7-8-7- ||
|-0--------------------------------0---------------------------3-5-6-5- ||


Riff 7(twice)
|----------------------------------------------------------------------
|----------------------------------------------------------------------
|----------------------------------------------------------------------
|----------------------------------------------------------------------
|-0h7h10-0h7h10-0h7h10-0h6h90h6h9-0h7h10-0h7h10-0h7h10-0h11h130h11h13--
|----------------------------------------------------------------------
| .      .      .      .          .      .      .       .
|----------------------------------------------------------------------
|----------------------------------------------------------------------
|----------------------------------------------------------------------
|-----------------------------8--------------------------------3-------
|-2------2------2------2------6---2------2------2-------2------1-------
|-0------0------0------0------6---0------0------0-------0------1-------

|---------------------------------------------------------------------- ||
|---------------------------------------------------------------------- ||
|----------------------------------------------------------------------.||
|----------------------------------------------------------------------.||
|-0h7h10-0h7h10-0h7h10-0h6h90h6h9--0h7h10-0h7h10-0h7h10-0h11h130h11h13- ||
|---------------------------------------------------------------------- ||
|  .                                .
|---------------------------------------------------------------------- ||
|---------------------------------------------------------------------- ||
|----------------------------------------------------------------------.||
|------------------------------8---------------------------------------.||
|--2-----2------2------2-------6---2------2------2------2------5-7-8-7- ||
|--0-----0------0------0-------6---0------0------0------0------3-5-6-5- ||

Riff 8 (twice)

| .      .      .      .          .      .      .       .
|----------------------------------------------------------------------
|----------------------------------------------------------------------
|----------------------------------------------------------------------
|-----------------------------8--------------------------------3-------
|-2------2------2------2------6---2------2------2-------2------1-------
|-0------0------0------0------6---0------0------0-------0------1-------

 .                                .
---------------------------------------------------------------------- ||
---------------------------------------------------------------------- ||
----------------------------------------------------------------------.||
------------------------------8---------------------------------------.||
--2-----2------2------2-------6---2------2------2------2------5-7-8-7- ||
--0-----0------0------0-----------0------0------0------0------3-5-6-5- ||

Riff 9 (twice)
|-------------------------------------------- ||
|-------------------------------------------- ||
|-----9-----9------------12----------15------.||
|---8-----8---8-------11----11----14----14---.||
|-7-----7-------7--10----------13------------ ||
|-------------------------------------------- ||
| . .              Pick Scrape!(or sweep?!)
|-------------------------------------------- ||
|-------------------------------------------- ||
|--------------------------------------------.||
|--------------------------------------------.||
|-2-2--------------X///////////////////////-- ||
|-0-0--------------X///////////////////////---||


Riff 10 (8 times)
|-------------------------------------------- ||
|-------------------------------------------- ||
|-----9-----9------------12----------15------.||
|---8-----8---8-------11----11----14----14---.||
|-7-----7-------7--10----------13------------ ||
|-------------------------------------------- ||
| . .   .
|-------------------------------------------- ||
|-------------------------------------------- ||
|--------------------------------------------.||
|------------------------5-----------8-------.||
|-2-2---2-2-----------4-----4-----7-----7---- ||
|-0-0---0-0--------3-----------6--------------||

Riff 1 (twice)
Riff 4 (twice)
Riff 5 (twice)

End.

  Visit MetalTabs.com for more metal tablature

bottom separator

Contact Us | Privacy Policy | Disclaimer | Legal Notice
Copyright © 2001-2014 MetalTabs.com. All Rights Reserved.