top separator

Home

Forum

FAQ

Contact Us

Link to Us

MetalTabs.com logo

Bands

0-9

A

B

C

D

E

F

G

H

I

J

K

L

M

N

O

P

Q

R

S

T

U

V

W

X

Y

Z

The Red Chord - "Catalepsy" Guitar Tab

Plain Text Version
More The Red Chord Tabs

Hits: 9287
Rated: 4.40 out of 5 (5 votes)
Updated: 2005-01-12 08:57:00

By:

Beelzebozo


#----------------------------------PLEASE NOTE---------------------------------#
#This file is the author's own work and represents their interpretation of the #
#song. You may only use this file for private study, scholarship, or research. #
#Unless specified otherwise, this is NOT an official tab from the band members.#
#------------------------------------------------------------------------------#

  Visit MetalTabs.com for more metal tablature
  
Title:  Catalepsy
Artist: The Red Chord
Album:  Fused Together in Revolving Doors

Copyright  Robotic Empire 2002
Version 1.0 - 05/01/2005

Tabbed by: Jorge Goncalves (jorgevent@msn.com)

.  - palm mute
/  - slide up and down to
b  - Bend
() - Harmonics
*  - Pinch harmonics
T  - Right hand tap
h  - Hammer
"  - Tremolo Picking

Tuning:(D G C F A D)

Easy access: CTRL + F
Search for "LEFT GUITAR" - "RIGHT GUITAR"


LEFT GUITAR:

D|-------------------------||
A|-------------------------||
F|---------------"3--------||
C|---------"1------"2------||X3
G|-----------"2------"3----||
D|--"1-"0--------------"2--||

D|------------------------||
A|------------------------||
F|---------------"3-------||
C|---------"1------"2-----||
G|-----------"2--------2--||
D|--"1-"0--------------0--||

D|-------------------------||
A|-------------------------||
F|---------------"3--------||
C|---------"1------"2------||X4
G|-----------"2------"3----||
D|--"1-"0--------------"2--||

D|------------------------------------------------------||
A|------------------------------------------------------||
F|------------------------------------------------------||
C|--4/3----------4/3----------4/3-----------------------||
G|--2/1-2-4/3-2--2/1-2-4/3-2--2/1-2-4/3-2--4-3-2-4-3-2--||
D|------0-2/1-0------0-2/1-0------0-2/1-0--2-1-0-2-1-0--||
                                           . . . . . .
D|---------------------------------------------------------||
A|---------------------------------------------------------||
F|-----------------------------------------------"3--------||
C|--4/3------------4/3------------4/3--------------"2------||
G|--2/1-22-4/3-22--2/1-22-4/3-22--2/1-22-4/3-22------"3----||
D|------00-2/1-00------00-2/1-00------00-2/1-00--------"2--||
        ..     ..      ..     ..      ..     ..
D|------------------------------------------------------------||
A|------------------------------------------------------------||
F|------------------------------------------------------------||
C|--4/3------------4/3------------4/3-------------------------||
G|--2/1-22-4/3-22--2/1-22-4/3-22--2/1-22-4/3-22--4-3-1-3-1-0--||
D|------00-2/1-00------00-2/1-00------00-2/1-00--4-3-1-3-1-0--||
        ..     ..      ..     ..      ..     ..  . . . . . .
D|---------------------------------------------------------||
A|---------------------------------------------------------||
F|-----------------------------------------------"3--------||
C|--4/3------------4/3------------4/3--------------"2------||
G|--2/1-22-4/3-22--2/1-22-4/3-22--2/1-22-4/3-22------"3----||
D|------00-2/1-00------00-2/1-00------00-2/1-00--------"2--||
        ..     ..      ..     ..      ..     ..
D|--------------------------------------------------------------------||
A|--------------------------------------------------------------------||
F|--------------------------------------------------------------------||
C|--4/3------------4/3------------4/3---------------------------------||
G|--2/1-22-4/3-22--2/1-22-4/3-22--2/1-22-4/3-22--4-3-1-3-1-0-4-3-1-3--||
D|------00-2/1-00------00-2/1-00------00-2/1-00--4-3-1-3-1-0-4-3-1-3--||
        ..     ..      ..     ..      ..     ..  . . . . . . . . .
D|---------------------------------------------------------------||
A|---------------------------------------------------------------||
F|---------------------------------------------------------------||
C|---------------------------------------------------------------||
G|--4-3-1-3-1-0--4-3-1-3-1-0--4-3-1-3-1-0--4-3-1-3-1-0--3-3-2-2--||
D|--4-3-1-3-1-0--4-3-1-3-1-0--4-3-1-3-1-0--4-3-1-3-1-0--1-1-0-0--||
                                                 . . .  . . . .
D|------------||
A|------------||
F|--"3--------||
C|----"2------||
G|------"3----||
D|--------"2--||

D|-------------------------||
A|-------------------------||
F|---------------"3--------||
C|---------"1------"2------||X4
G|-----------"2------"3----||
D|--"1-"0--------------"2--||

D|---------------------------||
A|---------------------------||
F|---------------------------||
C|---------------------------||X6
G|---------------------------||
D|--5-0-4-0-2-0-4-0-2-0-1-0--||
    . . . . . . . . . . . .
D|-----------------------------||
A|-----------------------------||
F|-----------------------------||
C|--8-7-------------/22-22-22--||
G|--6-5-8-7-22-3-5-7-----------||
D|------6-5-00-1-3-5/20-20-20--||
            ..
D|--------------------------------||
A|--------------------------------||
F|--------------------------------||
C|---------------------/22-22-22--||
G|--2-22-2222--2-22-222-----------||
D|--0-00-0000--0-00-000/20-20-20--||
    . .. ....  . .. ...
D|--------------------------------------------------||
A|--------------------------------------------------||
F|--------------------------------------------------||
C|-----------------------8-7-------------/22-22-22--||
G|--2-22-2222--2-22-222--6-5-8-7-22-3-5-7-----------||
D|--0-00-0000--0-00-000------6-5-00-1-3-5/20-20-20--||
    . .. ....  . .. ...          ..
D|--------------------------------||
A|--------------------------------||
F|--------------------------------||
C|---------------------/22-22-22--||
G|--2-22-2222--2-22-222-----------||
D|--0-00-0000--0-00-000/20-20-20--||
    . .. ....  . .. ...
D|--------------------------------------------------||
A|--------------------------------------------------||
F|--------------------------------------------------||
C|-----------------------8-7-------------/22-22-22--||
G|--2-22-2222--2-22-222--6-5-8-7-22-3-5-7-----------||
D|--0-00-0000--0-00-000------6-5-00-1-3-5/20-20-20--||
    . .. ....  . .. ...          ..
D|-------------------------||
A|-------------------------||
F|---------------"3--------||
C|---------"1------"2------||X4
G|-----------"2------"3----||
D|--"1-"0--------------"2--||

D|------------------------------------------------------||
A|------------------------------------------------------||
F|------------------------------------------------------||
C|--4/3----------4/3----------4/3-----------------------||
G|--2/1-2-4/3-2--2/1-2-4/3-2--2/1-2-4/3-2--4-3-2-4-3-2--||
D|------0-2/1-0------0-2/1-0------0-2/1-0--2-1-0-2-1-0--||
                                           . . . . . .
D|---------------------------------------------------------||
A|---------------------------------------------------------||
F|-----------------------------------------------"3--------||
C|--4/3------------4/3------------4/3--------------"2------||
G|--2/1-22-4/3-22--2/1-22-4/3-22--2/1-22-4/3-22------"3----||
D|------00-2/1-00------00-2/1-00------00-2/1-00--------"2--||
        ..     ..      ..     ..      ..     ..
D|-----------------------------------------------------------------||
A|-----------------------------------------------------------------||
F|-----------------------------------------------------------------||
C|--4/3------------4/3------------4/3------------------------------||
G|--2/1-22-4/3-22--2/1-22-4/3-22--2/1-22-4/3-22--4--3--1--3--1--0--||
D|------00-2/1-00------00-2/1-00------00-2/1-00--4--3--1--3--1--0--||
        ..     ..      ..     ..      ..     ..  .  .  .  .  .  .
D|---------------------------------------------------------||
A|---------------------------------------------------------||
F|-----------------------------------------------"3--------||
C|--4/3------------4/3------------4/3--------------"2------||
G|--2/1-22-4/3-22--2/1-22-4/3-22--2/1-22-4/3-22------"3----||
D|------00-2/1-00------00-2/1-00------00-2/1-00--------"2--||
        ..     ..      ..     ..      ..     ..
D|--------------------------------------------------------------------||
A|--------------------------------------------------------------------||
F|--------------------------------------------------------------------||
C|--4/3------------4/3------------4/3---------------------------------||
G|--2/1-22-4/3-22--2/1-22-4/3-22--2/1-22-4/3-22--4-3-1-3-1-0-4-3-1-3--||
D|------00-2/1-00------00-2/1-00------00-2/1-00--4-3-1-3-1-0-4-3-1-3--||
        ..     ..      ..     ..      ..     ..  . . . . . . . . .
D|---------------------------------------------------------------||
A|---------------------------------------------------------------||
F|---------------------------------------------------------------||
C|---------------------------------------------------------------||
G|--4-3-1-3-1-0--4-3-1-3-1-0--4-3-1-3-1-0--4-3-1-3-1-0--3-3-2-2--||
D|--4-3-1-3-1-0--4-3-1-3-1-0--4-3-1-3-1-0--4-3-1-3-1-0--1-1-0-0--||
                                                 . . .  . . . .
D|----------------------------||
A|----------------------------||
F|--"3---------------2--2--2--||
C|----"2-------------2--2--2--||
G|------"3--0--------2--2--2--||
D|----------2--------2--2--2--||

D|----------------------------------------------------------------------------||
A|----------------------------------------------------------------------------||
F|---------------------------------------------------------------------2-2-2--||
C|---------------------------------------------------------------------2-2-2--||
G|--0-1-2-*3-2-1-0-1-00-1-2-*3-2-1-0-1-00-1-2-*3-2-1-0-1-00-1-2-*3-2-1-2-2-2--||
D|--0-1-2----2-1-0-1-00-1-2----2-1-0-1-00-1-2----2-1-0-1-00-1-2----2-1-2-2-2--||
    . . .    . . . . .. . .    . . . . .. . .    . . . . .. . .    . .
D|-------------------------------------------------||
A|-------------------------------------------------||
F|-------------------------------------------------||
C|-----------3----------------------3--------------||
G|--00-11-22-3-22-11-00-11-00-11-22-3-22-11-00-11--||
D|--00-11-22---22-11-00-11-00-11-22---22-11-00-11--||
    .. .. ..   .. .. .. .. .. .. ..   .. .. .. ..
D|-------------------------------------------||
A|-------------------------------------------||
F|-------------------------------------------||
C|-------------------------------------------||
G|-----------------3333----------------------||
D|--0000-1111-2222------2222-1111-0000-1111--||
    .... .... ....      .... .... .... ....
D|---------------------------------------------||
A|---------------------------------------------||
F|---------------------------------2--2--2-----||
C|---------------------------------2--2--2-----||
G|-----------------3333------------2--2--2--2--||
D|--0000-1111-2222------2222-1111--2--2--2--0--||
    .... .... ....      .... ....



RIGHT GUITAR:

D|--------------------------------------------||
A|--------------------------------------------||
F|--------------------------------------------||
C|--------------------------------------------||
G|--2-----2-2--2-2----210-210-2----0---0-0-0--||
D|--0-----0-0--0-0----210-210-0----2---2-2-2--||

D|-------------------------||
A|-------------------------||
F|---------------"3--------||
C|---------"1------"2------||X4
G|-----------"2------"3----||
D|--"1-"0--------------"2--||

D|------------------------------------------------------||
A|------------------------------------------------------||
F|------------------------------------------------------||
C|--4/3----------4/3----------4/3-----------------------||
G|--2/1-2-4/3-2--2/1-2-4/3-2--2/1-2-4/3-2--4-3-2-4-3-2--||
D|------0-2/1-0------0-2/1-0------0-2/1-0--2-1-0-2-1-0--||
                                           . . . . . .
D|----------------------------------------------------------||
A|----------------------------------------------------------||
F|-----------------------------------------------"3---------||
C|--4/3------------4/3------------4/3--------------"2-------||
G|--2/1-22-4/3-22--2/1-22-4/3-22--2/1-22-4/3-22------"3-----||
D|------00-2/1-00------00-2/1-00------00-2/1-00--------b*2--||
        ..     ..      ..     ..      ..     ..
D|------------------------------------------------------------||
A|------------------------------------------------------------||
F|------------------------------------------------------------||
C|--4/3------------4/3------------4/3-------------------------||
G|--2/1-22-4/3-22--2/1-22-4/3-22--2/1-22-4/3-22--4-3-1-3-1-0--||
D|------00-2/1-00------00-2/1-00------00-2/1-00--4-3-1-3-1-0--||
        ..     ..      ..     ..      ..     ..  . . . . . .
D|----------------------------------------------------------||
A|----------------------------------------------------------||
F|-----------------------------------------------"3---------||
C|--4/3------------4/3------------4/3--------------"2-------||
G|--2/1-22-4/3-22--2/1-22-4/3-22--2/1-22-4/3-22------"3-----||
D|------00-2/1-00------00-2/1-00------00-2/1-00--------b*2--||
        ..     ..      ..     ..      ..     ..
D|--------------------------------------------------------------------||
A|--------------------------------------------------------------------||
F|--------------------------------------------------------------------||
C|--4/3------------4/3------------4/3---------------------------------||
G|--2/1-22-4/3-22--2/1-22-4/3-22--2/1-22-4/3-22--4-3-1-3-1-0-4-3-1-3--||
D|------00-2/1-00------00-2/1-00------00-2/1-00--4-3-1-3-1-0-4-3-1-3--||
        ..     ..      ..     ..      ..     ..  . . . . . . . . .
D|---------------------------------------------------------------||
A|---------------------------------------------------------------||
F|---------------------------------------------------------------||
C|---------------------------------------------------------------||
G|--4-3-1-3-1-0--4-3-1-3-1-0--4-3-1-3-1-0--4-3-1-3-1-0--3-3-2-2--||
D|--4-3-1-3-1-0--4-3-1-3-1-0--4-3-1-3-1-0--4-3-1-3-1-0--1-1-0-0--||
                                                 . . .  . . . .
D|-----------||
A|-----------||
F|-----------||
C|-----------||
G|--2-2-2-2--||
D|--0-0-0-0--||

D|-------------------------||
A|-------------------------||
F|---------------"3--------||
C|---------"1------"2------||X4
G|-----------"2------"3----||
D|--"1-"0--------------"2--||

D|---------------------------||
A|---------------------------||
F|---------------------------||
C|---------------------------||X6
G|---------------------------||
D|--5-0-4-0-2-0-4-0-2-0-1-0--||
    . . . . . . . . . . . .
D|-----------------------------||
A|-----------------------------||
F|-----------------------------||
C|--8-7-------------/22-22-22--||
G|--6-5-8-7-22-3-5-7-----------||
D|------6-5-00-1-3-5/20-20-20--||
            ..
D|--------------------------------||
A|--------------------------------||
F|--------------------------------||
C|---------------------/22-22-22--||
G|--2-22-2222--2-22-222-----------||
D|--0-00-0000--0-00-000/20-20-20--||
    . .. ....  . .. ...
D|--------------------------------------------------||
A|--------------------------------------------------||
F|--------------------------------------------------||
C|-----------------------8-7-------------/22-22-22--||
G|--2-22-2222--2-22-222--6-5-8-7-22-3-5-7-----------||
D|--0-00-0000--0-00-000------6-5-00-1-3-5/20-20-20--||
    . .. ....  . .. ...          ..
D|--------------------------------||
A|--------------------------------||
F|--------------------------------||
C|---------------------/22-22-22--||
G|--2-22-2222--2-22-222-----------||
D|--0-00-0000--0-00-000/20-20-20--||
    . .. ....  . .. ...
D|--------------------------------------------------||
A|--------------------------------------------------||
F|--------------------------------------------------||
C|-----------------------8-7-------------/22-22-22--||
G|--2-22-2222--2-22-222--6-5-8-7-22-3-5-7-----------||
D|--0-00-0000--0-00-000------6-5-00-1-3-5/20-20-20--||
    . .. ....  . .. ...          ..
D|-------------------------||
A|-------------------------||
F|---------------"3--------||
C|---------"1------"2------||X4
G|-----------"2------"3----||
D|--"1-"0--------------"2--||

D|------------------------------------------------------||
A|------------------------------------------------------||
F|------------------------------------------------------||
C|--4/3----------4/3----------4/3-----------------------||
G|--2/1-2-4/3-2--2/1-2-4/3-2--2/1-2-4/3-2--4-3-2-4-3-2--||
D|------0-2/1-0------0-2/1-0------0-2/1-0--2-1-0-2-1-0--||
                                           . . . . . .
D|----------------------------------------------------------||
A|----------------------------------------------------------||
F|-----------------------------------------------"3---------||
C|--4/3------------4/3------------4/3--------------"2-------||
G|--2/1-22-4/3-22--2/1-22-4/3-22--2/1-22-4/3-22------"3-----||
D|------00-2/1-00------00-2/1-00------00-2/1-00--------b*2--||
        ..     ..      ..     ..      ..     ..
D|-----------------------------------------------------------------||
A|-----------------------------------------------------------------||
F|-----------------------------------------------------------------||
C|--4/3------------4/3------------4/3------------------------------||
G|--2/1-22-4/3-22--2/1-22-4/3-22--2/1-22-4/3-22--4--3--1--3--1--0--||
D|------00-2/1-00------00-2/1-00------00-2/1-00--4--3--1--3--1--0--||
        ..     ..      ..     ..      ..     ..  .  .  .  .  .  .
D|----------------------------------------------------------||
A|----------------------------------------------------------||
F|-----------------------------------------------"3---------||
C|--4/3------------4/3------------4/3--------------"2-------||
G|--2/1-22-4/3-22--2/1-22-4/3-22--2/1-22-4/3-22------"3-----||
D|------00-2/1-00------00-2/1-00------00-2/1-00--------b*2--||
        ..     ..      ..     ..      ..     ..
D|--------------------------------------------------------------------||
A|--------------------------------------------------------------------||
F|--------------------------------------------------------------------||
C|--4/3------------4/3------------4/3---------------------------------||
G|--2/1-22-4/3-22--2/1-22-4/3-22--2/1-22-4/3-22--4-3-1-3-1-0-4-3-1-3--||
D|------00-2/1-00------00-2/1-00------00-2/1-00--4-3-1-3-1-0-4-3-1-3--||
        ..     ..      ..     ..      ..     ..  . . . . . . . . .
D|---------------------------------------------------------------||
A|---------------------------------------------------------------||
F|---------------------------------------------------------------||
C|---------------------------------------------------------------||
G|--4-3-1-3-1-0--4-3-1-3-1-0--4-3-1-3-1-0--4-3-1-3-1-0--3-3-2-2--||
D|--4-3-1-3-1-0--4-3-1-3-1-0--4-3-1-3-1-0--4-3-1-3-1-0--1-1-0-0--||
                                                 . . .  . . . .
D|-------------------------||
A|-------------------------||
F|----------------2--2--2--||
C|----------------2--2--2--||
G|--0-0-0-0-------2--2--2--||
D|--2-2-2-2-------2--2--2--||

D|----------------------------------------------------------------------------||
A|----------------------------------------------------------------------------||
F|---------------------------------------------------------------------2-2-2--||
C|--------*3----------------*3----------------*3----------------*3-----2-2-2--||
G|--0-1-2----2-1-0-1-00-1-2----2-1-0-1-00-1-2----2-1-0-1-00-1-2----2-1-2-2-2--||
D|--0-1-2----2-1-0-1-00-1-2----2-1-0-1-00-1-2----2-1-0-1-00-1-2----2-1-2-2-2--||
    . . .    . . . . .. . .    . . . . .. . .    . . . . .. . .    . .
D|-------------------------------------------------||
A|-------------------------------------------------||
F|-------------------------------------------------||
C|-----------3----------------------3--------------||
G|--00-11-22-3-22-11-00-11-00-11-22-3-22-11-00-11--||
D|--00-11-22---22-11-00-11-00-11-22---22-11-00-11--||
    .. .. ..   .. .. .. .. .. .. ..   .. .. .. ..
D|-------------------------------------------||
A|-------------------------------------------||
F|-------------------------------------------||
C|-------------------------------------------||
G|-----------------3333----------------------||
D|--0000-1111-2222------2222-1111-0000-1111--||
    .... .... ....      .... .... .... ....
D|---------------------------------------------||
A|---------------------------------------------||
F|---------------------------------2--2--2-----||
C|---------------------------------2--2--2-----||
G|-----------------3333------------2--2--2--2--||
D|--0000-1111-2222------2222-1111--2--2--2--0--||
    .... .... ....      .... ....

Fim

  Visit MetalTabs.com for more metal tablature

bottom separator

Contact Us | Privacy Policy | Disclaimer
Copyright © 2001-2014 MetalTabs.com. All Rights Reserved.