#----------------------------------PLEASE NOTE---------------------------------#
#This file is the author's own work and represents their interpretation of the #
#song. You may only use this file for private study, scholarship, or research. #
#Unless specified otherwise, this is NOT an official tab from the band members.#
#------------------------------------------------------------------------------#

  Visit MetalTabs.com for more metal tablature
  
Band:  Last days of humanity
Album: The sound of rancid juices sloshing around your coffin
Song:  Born to murder the world

Copyright (c)  bones brigade 1998
Version 1.0  5-1-2005

Transcribed By: adam bombsack
Email:          verlindenmaarten@hotmail.com


.  - palm mute           /  - slide up to
  - slide down to       ~  - vibrato
h  - hammer on           b  - Bend
p  - pull off            Suffixes for bend
t  - tap                 f  - full bend    h - half bend
ph - pinched harmonic    q  - quarter bend t - tap bend
*  - see comment         ^  - Hold bend    r release bend
x  - Stuccatto           ~  - vibrato bend
,  - slight palm mute    () - ghost note, sustained note
"  - tremolo note        <> - Trill

Tuning E

Riff a
|-------------------------------------------------------------------|
|-------------------------------------------------------------------|
|-------------------------------------------------------------------|
|-------------------------------------------------------------------|
|-2----4-2----4--7-6-5-4--------------------------------------------|
|-0----2-0----2--5-4-3-2--------------------------------------------|

Riff b
|-------------------------------------------------------------------|
|-------------------------------------------------------------------|
|-------------------------------------------------------------------|
|-------------------------------------------------------------------|
|-2-----4-2-----4--7-6-5-4------------------------------------------|
|-0-0-0-2-0-0-0-2--5-4-3-2------------------------------------------|
    . .     . .
Riff c
|-------------------------------------------------------------------|
|-------------------------------------------------------------------|
|-------------------------------------------------------------------|
|-------------------------------------------------------------------|
|-------------------------------------------------------------------|
|-00000022000000225555444433332222----------------------------------|

Structure: a2, c4, b4, c4, b4

  Visit MetalTabs.com for more metal tablature