#----------------------------------PLEASE NOTE---------------------------------#
#This file is the author's own work and represents their interpretation of the #
#song. You may only use this file for private study, scholarship, or research. #
#Unless specified otherwise, this is NOT an official tab from the band members.#
#------------------------------------------------------------------------------#

  Visit MetalTabs.com for more metal tablature
  
Band:  Brutality reigns supreme
Album: Brothers in gore (split with Gruesome stuff relish)
Song:  Im not insane

Copyright (c)  bizarre leprous productions 2001
Version 1.0  5-1-2005

Transcribed By: adam bombsack
Email:          verlindenmaarten@hotmail.com


.  - palm mute           /  - slide up to
\  - slide down to       ~  - vibrato
h  - hammer on           b  - Bend
p  - pull off            Suffixes for bend
t  - tap                 f  - full bend    h - half bend
ph - pinched harmonic    q  - quarter bend t - tap bend
*  - see comment         ^  - Hold bend    r release bend
x  - Stuccatto           ~  - vibrato bend
,  - slight palm mute    () - ghost note, sustained note
"  - tremolo note        <> - Trill

Tuning B

Riff a
|-----------|-------------------------------------------------------|
|-----------|-------------------------------------------------------|
|-----------|-------------------------------------------------------|
|-----------|-------------------------------------------------------|
|-2---------|-3-6-5-3-2--3-6-5-3-4----------------------------------|
|-0-(begin)-|-1-4-3-1-0--1-4-3-1-2----------------------------------|

Riff b
|---------------------|---------------------------------------------|
|---------------------|---------------------------------------------|
|---------------------|---------------------------------------------|
|---------------------|---------------------------------------------|
|---------------------|--6-5-4-3------------------------------------|
|--00003344-(3times)--|--4-3-2-1------------------------------------|

Riff c
|-------------------------------------------------------------------|
|-------------------------------------------------------------------|
|-------------------------------------------------------------------|
|-------------------------------------------------------------------|
|--6-5-4-3----------------------------------------------------------|
|--4-3-2-1----------------------------------------------------------|

Structure: a2, b5, c8, a2, b5, c8

  Visit MetalTabs.com for more metal tablature