#----------------------------------PLEASE NOTE---------------------------------#
#This file is the author's own work and represents their interpretation of the #
#song. You may only use this file for private study, scholarship, or research. #
#Unless specified otherwise, this is NOT an official tab from the band members.#
#------------------------------------------------------------------------------#

  Visit MetalTabs.com for more metal tablature
  
Band:  Impetigo
Album: horror of the zombies
Song:  boneyard

Copyright (c)  wild rags 1992
Version 1.0  5-1-2005

Transcribed By: adam bombsack
Email:          verlindenmaarten@hotmail.com


.  - palm mute           /  - slide up to
\  - slide down to       ~  - vibrato
h  - hammer on           b  - Bend
p  - pull off            Suffixes for bend
t  - tap                 f  - full bend    h - half bend
ph - pinched harmonic    q  - quarter bend t - tap bend
*  - see comment         ^  - Hold bend    r release bend
x  - Stuccatto           ~  - vibrato bend
,  - slight palm mute    () - ghost note, sustained note
"  - tremolo note        <> - Trill

Tuning B(?)

Riff a
|-------------------------------------------------------------------|
|-------------------------------------------------------------------|
|-------------------------------------------------------------------|
|---5---3-----------------------------------------------------------|
|-2-3-5-1-----------------------------------------------------------|
|-0---3-------------------------------------------------------------|

Riff b
|-------------------------------------------------------------------|
|-------------------------------------------------------------------|
|-------------------------------------------------------------------|
|---------5-5---------3-3-------------------------------------------|
|-2-2-2-2-3-3-5-5-5-5-1-1-------------------------------------------|
|-0-0-0-0-----3-3-3-3-----------------------------------------------|
  . . . .     . . . .
Riff c
|-------------------------------------------------------------------|
|-------------------------------------------------------------------|
|-------------------------------------------------------------------|
|-------------------------------------------------------------------|
|-------------------------------------------------------------------|
|-0-(32 times)------------------------------------------------------|
  .
Structure: a (4), b (8), a (4), c, b (8),a (4), c, b (8), a (4), c, a (4)

  Visit MetalTabs.com for more metal tablature