#----------------------------------PLEASE NOTE---------------------------------#
#This file is the author's own work and represents their interpretation of the #
#song. You may only use this file for private study, scholarship, or research. #
#Unless specified otherwise, this is NOT an official tab from the band members.#
#------------------------------------------------------------------------------#

  Visit MetalTabs.com for more metal tablature
  
Band:  Gut
Album: odour of torture
Song:  consequence

Copyright (c)  morbid 1995
Version 1.0  4-1-2005

Transcribed By: adam_bombsack
Email:          verlindenmaarten@hotmail.com


.  - palm mute           /  - slide up to
\  - slide down to       ~  - vibrato
h  - hammer on           b  - Bend
p  - pull off            Suffixes for bend
t  - tap                 f  - full bend    h - half bend
ph - pinched harmonic    q  - quarter bend t - tap bend
*  - see comment         ^  - Hold bend    r release bend
x  - Stuccatto           ~  - vibrato bend
,  - slight palm mute    () - ghost note, sustained note
"  - tremolo note        <> - Trill

Tuning B (?)

Riff a
|-------------------------------------------------------------------|
|-------------------------------------------------------------------|
|-------------------------------------------------------------------|
|-------------------------------------------------------------------|
|-2-2-5-5-4-4-3-3---------------------------------------------------|
|-0-0-3-3-2-2-1-1---------------------------------------------------|

Riff b
|-------------------------------------------------------------------|
|-------------------------------------------------------------------|
|-------------------------------------------------------------------|
|-------------------------------------------------------------------|
|-------------------------------------------------------------------|
|-0000333322221111--------------------------------------------------|

Riff c
|-------------------------------------------------------------------|
|-------------------------------------------------------------------|
|-------------------------------------------------------------------|
|-------------------------------------------------------------------|
|-2-2-2-2-2-2-2-2-2-2-2-2--5-4-3-3----------------------------------|
|-0-0-0-0-0-0-0-0-0-0-0-0--3-2-1-1----------------------------------|

Structure: a (4), b (4), a (4), c (4), a (4), c (4), a (4)

  Visit MetalTabs.com for more metal tablature