top separator

Home

Forum

FAQ

Contact Us

Link to Us

MetalTabs.com logo

Bands

0-9

A

B

C

D

E

F

G

H

I

J

K

L

M

N

O

P

Q

R

S

T

U

V

W

X

Y

Z

Nightwish - "Wish I Had An Angel" Bass Tab

Plain Text Version
More Nightwish Tabs

Hits: 4308
Rated: 2.67 out of 5 (6 votes)
Updated: 2005-01-12 08:43:30

By:


#----------------------------------PLEASE NOTE---------------------------------#
#This file is the author's own work and represents their interpretation of the #
#song. You may only use this file for private study, scholarship, or research. #
#Unless specified otherwise, this is NOT an official tab from the band members.#
#------------------------------------------------------------------------------#

  Visit MetalTabs.com for more metal tablature
  
Artist: Nightwish
Album: Once
Song: Wish i had an angel
Record label: Spinefarm Records
Tab by UnterTaker (minamine@tin.it)

To view better the tabs copy it view it in a writning program...
then change the text format
in Courier New, size 8 or 10.... good quality!!
Intro 00:10
|------------------------------------------------------------------|
|------------------------------------------------------------------|
|-------0-22-0-22--------0-22-------------0-22-0-2202-----2-------|
|-0-1-0------------0-1-0------0310--0-1-0-------------03311-044331-|

Verse 00:32
|------------------------------------------------------------------------
|------------------------------------------------------------------------
|-----------------------------------53---0h2-0h2-0h2-0h2------3----------
|-0000...77777770000...77777770310-3---2-----------------0310---23-2-2-

Chorus
|------------------------------------------------------|------------|
|------------------------------------------------------|------------|
|--------3333...--5---------------------------33335555-|-------0-22-|
|-0000...-------3---0000...-22...-33...-55...----------|-0-1-0------|

Verse 01:22
|---------------------------------------------------------------|
|---------------------------------------------------------------|
|------------------------5533---0h2-0h2-0h2-0h2------3----------|
|-000000...77777770310-3------2-----------------0310---23-2-2-|

Chorus
|------------------------------------------------------|
|------------------------------------------------------|
|--------3333...--5---------------------------33335555-|
|-0000...-------3---0000...-22...-33...-55...----------|

Bridge 02:08
|---------------------------------------------------------------------|
|---------------------------------------------------------------------|
|-----00-0-22-----------------0000000--00000003300000000--0-0-0-00--3-|
|-0010---------000-111-1-321---------01-----------------01--------11--|



02:25
|------------------------------------------------------------------|
|------------------------------------------------------------------|
|-------------------------------0---------------1----------------0-|
|-0-000000-0-0-0-0-0-0-00013-013---0-000000-0-0---0-00001-3-01034--|

|---------------------------------------------------------------|
|---------------------------------------------------------------|
|-0-0-000-0-0--0-0-0-0-0-0-011-0---0--0-0--0--0-----------------|
|------------01------------------00--0----0-------0-0-0-0-00...-|

Chorus
|------------------------------------------------------|
|------------------------------------------------------|
|--------3333...--5---------------------------33335555-|
|-0000...-------3---0000...-22...-33...-55...----------|

Intro
|------------------------------------------------------------------|
|------------------------------------------------------------------|
|-------0-22-0-22--------0-22-------------0-22-0-2202-----2-------|
|-0-1-0------------0-1-0------0310--0-1-0-------------03311-044331-|

|-----------------|
|-----------------|
|-------0-22-0-22-| until end
|-0-1-0-----------|


I think they're 99,9999999% correct so... good play!

PS: a special thanks to warlock7 that help me with his tab to transcript it.

X UnderTaker X

  Visit MetalTabs.com for more metal tablature

bottom separator

Contact Us | Privacy Policy | Disclaimer
Copyright © 2001-2014 MetalTabs.com. All Rights Reserved.