top separator

Home

Forum

What's New

Submit a Tab

FAQ

Links

Contact Us

Link to Us

MuSpy.com

MetalTabs.com logo

Bands

0-9

A

B

C

D

E

F

G

H

I

J

K

L

M

N

O

P

Q

R

S

T

U

V

W

X

Y

Z

Search

What

Where
 

Gut - "Sperminator" Guitar Tab

Plain Text Version
More Gut Tabs

Hits: 3786
Rated: 2.00 out of 5 (10 votes)
Updated: 2005-01-12 08:41:25

 

By:

adam bombsack

sendpm.gif

email.gif

Important note
This tab is available online because we obtained explicit permission from Gut or their label.


#----------------------------------PLEASE NOTE---------------------------------#
#This file is the author's own work and represents their interpretation of the #
#song. You may only use this file for private study, scholarship, or research. #
#Unless specified otherwise, this is NOT an official tab from the band members.#
#------------------------------------------------------------------------------#

  Visit MetalTabs.com for more metal tablature
  
Band:  Gut
Album: The singles collection
Song:  sperminator

Copyright (c)  deliria noise outfitters 2000
Version 1.0 – 3-1-2005

Transcribed By: adam_bombsack
Email:          verlindenmaarten@hotmail.com

.  - palm mute           /  - slide up to
\  - slide down to       ~  - vibrato
h  - hammer on           b  - Bend
p  - pull off            Suffixes for bend
t  - tap                 f  - full bend    h - half bend
ph - pinched harmonic    q  - quarter bend t - tap bend
*  - see comment         ^  - Hold bend    r release bend
x  - Stuccatto           ~  - vibrato bend
,  - slight palm mute    () - ghost note, sustained note
"  - tremolo note        <> - Trill

Tunning B (?)

Riff a
|-------------------------------------------------------------------|
|-------------------------------------------------------------------|
|-------------------------------------------------------------------|
|-------------------------------------------------------------------|
|-6-666-666-666-666-666-666-666-6--4-444-444-444-444-444-444-444-4--|
|-4-444-444-444-444-444-444-444-4--2-222-222-222-222-222-222-222-2--|cont…

|-------------------------------------------------------------------|
|-------------------------------------------------------------------|
|-------------------------------------------------------------------|
|-------------------------------------------------------------------|
|-6-666-666-666-666-666-666-666-6-----------------------------------|
|-4-444-444-444-444-444-444-444-4-----------------------------------|

Riff b
|-------------------------------------------------------------------|
|-------------------------------------------------------------------|
|-------------------------------------------------------------------|
|-------------------------------------------------------------------|
|-4-6-4-6-4-6-4-6-4-6-----------------------------------------------|
|-2-4-2-4-2-4-2-4-2-4-----------------------------------------------|
              . . . .
Riff c
|-------------------------------------------------------------------|
|-------------------------------------------------------------------|
|-------------------------------------------------------------------|
|-------------------------------------------------------------------|
|-644-644-644-644--466-466-466-466--644-644-644-644-----------------|
|-422-422-422-422--244-244-244-244--422-422-422-422-----------------|


Riff d
|--------------------|-----------|---------|------------------------|
|--------------------|-----------|---------|------------------------|
|--------------------|-----------|---------|------------------------|
|--------------------|-----------|---------|------------------------|
|-3-2-3-2-3-2--------|-5-6-7-----|-7-6-5---|-------------2----------|
|-1-0-1-0-1-0--------|-3-4-5-----|-5-4-3---|-5555444433330----------|
    .   .   .(4times)ending 1/3  ending 2  ending 4



Song structure: a, b, c, b, c, b, d(2 times), repeat everything 2 times

  Visit MetalTabs.com for more metal tablature

bottom separator

Contact Us | Privacy Policy | Disclaimer | Legal Notice
Copyright © 2001-2014 MetalTabs.com. All Rights Reserved.