top separator

Home

Forum

What's New

Submit a Tab

FAQ

Links

Contact Us

Link to Us

MetalTabs.com logo

Bands

0-9

A

B

C

D

E

F

G

H

I

J

K

L

M

N

O

P

Q

R

S

T

U

V

W

X

Y

Z

Search

What

Where
 

Storm (NO) - "Noregsgard" Guitar Tab

Plain Text Version
More Storm (NO) Tabs

Hits: 4764
Rated: 4.56 out of 5 (9 votes)
Updated: 2005-01-12 09:06:16

 

By:

sendpm.gif

email.gif

Important note
This tab is available online because we obtained explicit permission from Storm (NO) or their label.


#----------------------------------PLEASE NOTE---------------------------------#
#This file is the author's own work and represents their interpretation of the #
#song. You may only use this file for private study, scholarship, or research. #
#Unless specified otherwise, this is NOT an official tab from the band members.#
#------------------------------------------------------------------------------#

  Visit MetalTabs.com for more metal tablature
  
Band: Storm
Album: Nordavind
Song: Noregsgard
Tabbed by: Felipe Cerpa
Tab Date: 02-01-2005
Email: pulelaraja1409@hotmail.com


Intro
e----------------------------------------
b----------------------------------------
g-----------------------------6s7-7s6-6s7
d-4-4-4-4-4-4-4---4---4-4-4-4-6s7-7s6-6s7
a-4-4-4-4-4-4-4---4---4-4-4-4-4s5-5s4-4s5
E-2-2-2-2-2-2-2p0-0h2-2-2-2-2------------


Verso

e----------------------------------------
b----------------------------------------
g-----------------------------6s7-7s6-6s7
d-4-4-4-4-4-4-4---4---4-4-4-4-6s7-7s6-6s7
a-4-4-4-4-4-4-4---4---4-4-4-4-4s5-5s4-4s5
E-2-2-2-2-2-2-2p0-0h2-2-2-2-2------------

esto se toca entremedio de los riff despues de un rato, escuchar bien el cd.

e-------------------------------
b-------------------------------
g-------------------------------
d-7b-6-4---4-6-7-9p7-6---4-6-7-6
a--------4-------------4--------
E-------------------------------

despues:

e----------------------------
b----------------------------
g-------------------------4-3
d-6-6-6-6-6-6-6-6-6-6-6-6-4-3
a-6-6-6-6-6-6-6-6-6-6-6-6-2-1
E-4-4-4-4-4-4-4-4-4-4-4-4----

interludio
e----------------------
b----------------------
g----------------------
d-6---6-7-6-4----------
a---4---------6-7-7-6-7
E----------------------

Verso final + outro

e----------------------------------------
b----------------------------------------
g-----------------------------6s7-7s6-6s7
d-4-4-4-4-4-4-4---4---4-4-4-4-6s7-7s6-6s7
a-4-4-4-4-4-4-4---4---4-4-4-4-4s5-5s4-4s5
E-2-2-2-2-2-2-2p0-0h2-2-2-2-2------------


dudas, preguntas correcciones??
enviame un mail a pulelaraja1409@hotmail.com

este es mi primer tab ojala este bien y ke les guste!! adios

  Visit MetalTabs.com for more metal tablature

bottom separator

Contact Us | Privacy Policy | Disclaimer | Legal Notice
Copyright © 2001-2014 MetalTabs.com. All Rights Reserved.