top separator

Home

Forum

What's New

Submit a Tab

FAQ

Links

Contact Us

Link to Us

MetalTabs.com logo

Bands

0-9

A

B

C

D

E

F

G

H

I

J

K

L

M

N

O

P

Q

R

S

T

U

V

W

X

Y

Z

Search

What

Where
 

My Dying Bride - "The Wreckage of My Flesh" Guitar Tab

Plain Text Version
More My Dying Bride Tabs

Hits: 9061
Rated: 4.88 out of 5 (43 votes)
Updated: 2010-07-25 15:20:22

 

By:

Paddy

sendpm.gif

email.gif

Important note
This tab is available online because we obtained explicit permission from My Dying Bride or their label.


#----------------------------------PLEASE NOTE---------------------------------#
#This file is the author's own work and represents their interpretation of the #
#song. You may only use this file for private study, scholarship, or research. #
#Unless specified otherwise, this is NOT an official tab from the band members.#
#------------------------------------------------------------------------------#

  Visit MetalTabs.com for more metal tablature
  
================================================================================
                           M Y   D Y I N G   B R I D E

                                        -

                 T H E   W R E C K A G E   O F   M Y   F L E S H
================================================================================


                        SONGS OF DARKNESS, WORDS OF LIGHT
                          (c) Peaceville Records (2004)
                           http://www.mydyingbride.org/


                              Tune Down 1 & 1/2 Steps
                                  C# F# B E G# C#

                                  Tempo = 115 BPM
                                Time Signature = 4/4



                          -----------------------------
                                  Transcribed by

                                  PADDY MCMULLAN
                            pmtabs (@t) gmail [dot] com

                                   Version 2.0
                                10th January 2010
                     (Corrections Outlined at Bottom of Tab)
                             -----------------------

                             Tablature Symbols Used:


 p         -  Pull-Off
 h         -  Hammer-On
 \         -  Slide Down to/Down From
 /         -  Slide Up to/Up From
 ( / )     -  Legato Slide
 ( )       -  Ghost Note/Tied Note/Implied Note
 REST      -  Rest and sustain rest for duration of blank space
 |__[1,2]  -  Alternative Endings


================================================================================
Intro: Guitars 1 and 2 with Heavy Distortion (Play once)
================================================================================


||--------------------|---------------------||
||--------------------|---------------------||
||--------------------|---------------------||
||--2----2------------|--(2)----------------||
||--2----2------------|--(2)----------------||
||--0----0------------|--(0)----------------||



================================================================================
Section 1: Guitars 1 and 2 (Play twice)
================================================================================


|________________________________________________________________[1,2,3]
||---------------|------------------|------------------|--------------||
||---------------|------------------|------------------|--------------||
||---------------|------------------|------------------|--------------||
||--2------------|--(2)-------------|--(2)-------------|--(2)---------||
||---------------|------------------|------------------|--------------||
||---------------|------------------|------------------|--------------||

|____________________________________________________________________________[4]
|-------------------|---------------------|------------------|---------------| |
|-------------------|---------------------|------------------|---------------| |
|-------------------|---------------------|------------------|---------------|*|
|-------------------|---------------------|------------------|---------------|*|
|--3----------------|--0--------2---------|------------------|---------------| |
|-------------------|----------------0----|--0---------------|--(0)----------| |



================================================================================
Section 2.1: Guitar 1 (Play 8 times)
================================================================================


|__________________________________________________________________________[1-7]
||-------------------|---------------------|-----------------|---------------| |
||-------------------|---------------------|-----------------|---------------| |
||-------------------|---------------------|-----------------|---------------|*|
||-------------------|---------------------|-----------------|---------------|*|
||--3----------------|--0--------2---------|-----------------|---------------| |
||-------------------|----------------0----|--0--------------|--(0)----------| |

|___________________________________________________________________________[8]
|-------------------|---------------------|-----------------|---------------| |
|-------------------|---------------------|-----------------|---------------| |
|-------------------|---------------------|-----------------|---------------|*|
|-------------------|---------------------|-----------------|---------------|*|
|--3----------------|--0--------2----2----|--2--------------|--(2)----------| |
|-------------------|----------------0----|--0--------------|--(0)----------| |



================================================================================
Section 2.2: Guitar 2 (Play 8 times)
================================================================================

|______________________________________________________________________[1-3,5-7]
||-----------------|---------------------|-------------------|-----------------|
||-----------------|---------------------|-------------------|-----------------|
||-----------------|---------------------|-------------------|-----------------|
||--2--------------|---------------------|-------------------|-----------------|
||-----------------|--3--------2---------|-------------------|-----------------|
||-----------------|----------------3----|--3----------------|--(3)------------|

|_________________________________________________________________________[4,8]
|-------------------|---------------------|------------------|---------------||
|-------------------|---------------------|------------------|---------------||
|-------------------|---------------------|------------------|---------------||
|-------------------|---------------------|------------------|---------------||
|--3----------------|--0--------2---------|------------------|---------------||
|-------------------|----------------0----|--0---------------|--(0)----------||



================================================================================
Section 3.1: Guitar 1 (Play 6 times)
================================================================================


||--------------------|----------------------|----------------------|
||--------------------|----------------------|----------------------|
||--------------------|----------------------|----------------------|
||--------------------|----------------------|----------------------|
||--------------------|-----------------5----|--(5\2)--2------------|
||--0--------0--------|-(0)---0----3---------|----------------------|


|------------------------|----------------------|-----------------------|
|------------------------|----------------------|-----------------------|
|------------------------|----------------------|-----------------------|
|------------------------|----------------------|-----------------------|
|-(2)---(2/3)--3----3----|--3 / 7--7------------|-(7)---7  \  3----3----|
|------------------------|----------------------|-----------------------|


|----------------------|----------------------| |
|----------------------|----------------------| |
|----------------------|----------------------|*|
|----------------------|----------------------|*|
|--3 p 0--0------------|-(0)---0----2----2----| |
|----------------------|----------------------| |



After the first time replace the first bar with the following:



||----------------------|
||----------------------|
||----------------------|
||----------------------|
||--2-------------------|
||-----0--0----0--------|



================================================================================
Section 3.2: Guitar 2 (Play 6 times)
================================================================================


||----------------------|---------------------------|
||----------------------|---------------------------|
||----------------------|---------------------------|
||----------------------|---------------------------|
||-(5/7)-------7--------|-(7)---7----(7/10)---10----|
||----------------------|---------------------------|


|-----------------------|---------------------------|----------------------|
|-----------------------|---------------------------|----------------------|
|-----------------------|---------------------------|----------------------|
|-----------------------|---------------------------|----------------------|
|--(10\9)--9------------|-(9)---(9/10)--10----10----|--10  \  3------------|
|-----------------------|---------------------------|----------------------|


|-------------------------|--------------------------|
|-------------------------|--------------------------|
|-------------------------|--------------------------|
|-------------------------|--------------------------|
|-(3)---3  /  10----10----|--10--12p 10-9------------|
|-------------------------|--------------------------|


|----------------------------------| |
|----------------------------------| |
|----------------------------------|*|
|----------------------------------|*|
|-(9)---9 h 10--(10/12)----10 p 9--| |
|----------------------------------| |



After the first time replace the first bar with the following:



||------------------------|
||------------------------|
||------------------------|
||------------------------|
||--10 p 9 \ 7------------|
||------------------------|



================================================================================
Section 4.1: Guitars 1 and 2 (Play 4 Times)
================================================================================


||----------------------|----------------------|----------------------|
||----------------------|----------------------|----------------------|
||----------------------|----------------------|----------------------|
||----------------------|----------------------|----------------------|
||--0----2----2----2----|--0----0----0----0----|--0------0------------|
||--0----3----3----3----|--0----0----2----2----|--2 h 3--2------------|


|--------------------------|------------------------|--------------------| |
|--------------------------|------------------------|--------------------| |
|--------------------------|------------------------|--------------------|*|
|--------------------------|-------------------9----|--9----9------------|*|
|--0------0----0----0------|--0-----------7----7----|--7----7------------| |
|--2 h 3--2----2----2 h 3--|--2----7-- \--0----0----|--0----0------------| |



Hold the last chord for a further 4 bars



================================================================================
Section 4.2: Guitar 3 with Heavy Distortion (Play once)
================================================================================


Rest for 5 bars


                 Fade in
||--------------------|-------------------|-------------------------|
||--R-          ------|-------------------|-------------------------|
||--E-          -9----|--(9)--------------|-(9)   / 12  \  7--------|
||--S-          ------|-------------------|-------------------------|
||--T-          ------|-------------------|-------------------------|
||--------------------|-------------------|-------------------------|


|-------------------|---------------------|-------------------------|
|-------------------|---------------------|-------------------------|
|--(7)--------------|-(7)-9--9------------|-(9)  /  12  \  9--------|
|-------------------|---------------------|-------------------------|
|-------------------|---------------------|-------------------------|
|-------------------|---------------------|-------------------------|


|-------------------|----------------------|---------------------|
|-------------------|----------------------|---------------------|
|--(9)--------------|--(9/16)--------------|-(16)------14--------|
|-------------------|----------------------|---------------------|
|-------------------|----------------------|---------------------|
|-------------------|----------------------|---------------------|


|---------------------|--------------------|--------------------------|
|---------------------|--------------------|--------------------------|
|--(14)---------16----|--17----------------|-(17)  \  14----16--------|
|---------------------|--------------------|--------------------------|
|---------------------|--------------------|--------------------------|
|---------------------|--------------------|--------------------------|


|-------------------|---------------------|---------------------|
|-------------------|---------------------|---------------------|
|--(16)-------------|- /21----------------|-(21)------19--------|
|-------------------|---------------------|---------------------|
|-------------------|---------------------|---------------------|
|-------------------|---------------------|---------------------|


|-----------------------|----------------------|
|-----------------------|----------------------|
|--(19)---------  \ 14--|-(14)---16------------|
|-----------------------|----------------------|
|-----------------------|----------------------|
|-----------------------|----------------------|

                                   Fade out
|------------------------------|-------------------|-------------------|
|------------------------------|-------------------|-------------------|
|-(16)--(16/17)----14----16----|--(16)-------------|--(16)-------------|
|------------------------------|-------------------|-------------------|
|------------------------------|-------------------|-------------------|
|------------------------------|-------------------|-------------------|


|-------------------|-------------------|-------------------||
|-------------------|-------------------|-------------------||
|--(16)-------------|--(16)-------------|--(16)-------------||
|-------------------|-------------------|-------------------||
|-------------------|-------------------|-------------------||
|-------------------|-------------------|-------------------||



================================================================================
Rest for 8 bars
================================================================================

================================================================================
Section 5: Guitars 1 and 2 (Play 4 times)
================================================================================


||--------------------|--------------------------|----------------------|
||--------------------|--------------------------|----------------------|
||--------------------|--------------------------|----------------------|
||--9--------9--------|-(9)---9  /  12----12  \  |--11--------11--------|
||--7--------7--------|-(7)---7  /  10----10  \  |--9---------9---------|
||--7--------7--------|-(7)---7  /  10----10  \  |--9---------9---------|


|----------------------------|--------------------|
|----------------------------|--------------------|
|----------------------------|--------------------|
|-(11)---11  / 12----12-- \--|--5--------5--------|
|-(9)----9   / 10----10-- \--|--3--------3--------|
|-(9)----9   / 10----10-- \--|--3--------3--------|


|-------------------------|----------------------|
|-------------------------|----------------------|
|-------------------------|----------------------|
|-(5)---5  /  12----12----|--11--------11--------|
|-(3)---3  /  10----10----|--9---------9---------|
|-(3)---3  /  10----10----|--9---------9---------|


|----------------------------| |
|----------------------------| |
|----------------------------|*|
|-(11)--11  /  12----12-  \--|*|
|-(9)---9   /  10----10-  \--| |
|-(9)---9   /  10----10-  \--| |



After the last time replace the last bar with the following:



|---------------------------||
|----------------------R-  -||
|----------------------E-  -||
|-(11)---11  / 12--12--S-  -||
|-(9)----9   / 10--10--T-  -||
|-(9)----9   / 10--10-------||



================================================================================
Repeat Section 4, with the following lead:
================================================================================


||-----------------------------|----------------------|
||-----------------------------|----------------------|
||-----------------------------|----------------------|
||-(12\9) h 10--------- h 9----|-(9       \ 7)--------|
||-----------------------------|----------------------|
||-----------------------------|----------------------|


|-------------------|------------------------|-----------------------|
|-------------------|------------------------|-----------------------|
|-------------------|------------------------|-----------------------|
|--(7)--------------|--9 h 10-----------9----|-(9)-- / 14------------|
|-------------------|------------------------|-----------------------|
|-------------------|------------------------|-----------------------|


|-------------------|--------------------------|---------------------|
|-------------------|--------------------------|---------------------|
|-------------------|--------------------------|---------------------|
|--(14)-------------|--16 h 17-----------16----|-(16)------14--------|
|-------------------|--------------------------|---------------------|
|-------------------|--------------------------|---------------------|


|-------------------|--------------------------|-------------------|
|-------------------|--------------------------|-------------------|
|-------------------|--------------------------|-------------------|
|--(14)-------------|--16 h 17-----------16----|--(16)-------------|
|-------------------|--------------------------|-------------------|
|-------------------|--------------------------|-------------------|


|------------------------|--------------------------|----------------------|
|------------------------|--------------------------|----------------------|
|------------------------|--------------------------|----------------------|
|--(16)----14--------- \ |--9 h 10---------  h 9----|-(9       \ 7)--------|
|------------------------|--------------------------|----------------------|
|------------------------|--------------------------|----------------------|


|-------------------|------------------------|-----------------------|
|-------------------|------------------------|-----------------------|
|-------------------|------------------------|-----------------------|
|--(7)--------------|--9 h 10-----------9----|-(9)-- / 14------------|
|-------------------|------------------------|-----------------------|
|-------------------|------------------------|-----------------------|


|-------------------||
|-------------------||
|-------------------||
|--(14)-------------||
|-------------------||
|-------------------||



================================================================================
Guitars 1 and 2 play Section 1 twice, allowing the final notes to ring out
================================================================================

================================================================================
End
================================================================================


Tab summary:        Intro x 1
                    Section 1 x 2
                    Section 2 x 8
                    Section 3 x 6
                    Section 4 x 4
                    Section 5 x 4
                    Section 4 x 4
                    Section 4 x 4

                    END


-------------------------
Corrections (10/01/2010):
-------------------------

* Completely retabbed from scratch.

  Visit MetalTabs.com for more metal tablature

bottom separator

Contact Us | Privacy Policy | Disclaimer | Legal Notice
Copyright © 2001-2014 MetalTabs.com. All Rights Reserved.