top separator

Home

Forum

What's New

Submit a Tab

FAQ

Links

Contact Us

Link to Us

MetalTabs.com logo

Bands

0-9

A

B

C

D

E

F

G

H

I

J

K

L

M

N

O

P

Q

R

S

T

U

V

W

X

Y

Z

Search

What

Where
 

Himsa - "Rain To The Sound Of Panic" Bass Tab

Plain Text Version
More Himsa Tabs

Hits: 3939
Rated: 3.40 out of 5 (5 votes)
Updated: 2005-01-01 13:02:26

 

By:

sendpm.gif

email.gif

Important note
This tab is available online because we obtained explicit permission from Himsa or their label.


#----------------------------------PLEASE NOTE---------------------------------#
#This file is the author's own work and represents their interpretation of the #
#song. You may only use this file for private study, scholarship, or research. #
#Unless specified otherwise, this is NOT an official tab from the band members.#
#------------------------------------------------------------------------------#

  Visit MetalTabs.com for more metal tablature
  
Band:  (HIMSA)
Album: (Courting Tragedy and Disaster)
Song:  (Rain To the Sound of Panic)

Copyright (c)  (Prosthetic Records) (2003)

Transcribed By: (Jon Lipinski)
Email:          (thething666s@aol.com)


.  - palm mute           /  - slide up to
\  - slide down to       ~  - vibrato
h  - hammer on           b  - Bend
p  - pull off            Suffixes for bend
t  - tap                 f  - full bend    h - half bend
ph - pinched harmonic    q  - quarter bend t - tap bend
*  - see comment         ^  - Hold bend    r release bend
x  - Stuccatto           ~  - vibrato bend
,  - slight palm mute    () - ghost note, sustained note
"  - tremolo note        <> - Trill

Tunning E A D G

|----------------------------|#1
|----------------------------|X1
|------------21-10-----------|
|--5-6--3-2--------53-12-3---|

|--------------------------------------|#2
|--------------------------------------|X1
|----2--2--2---------------------------|
|--3---3--3-3-1--2-3-4-3-323232-23-43--|


|--------------------|#3
|--------------------|X3
|--3-2-3-5-3-2-4p3-2-|
|---0-0-0-0-0-0------|


|--------------------|#4
|-------6-3-1-0------|X1
|-3-2-3--------------|
|--------------------|


|--------------------|#5
|--3-2-3-5-3-2-------|X2
|---0-0-0-0-0-0------|
|--------------------|

#3X2(not X3)

|--------------------|#6
|--------------------|X1
|-1-0--3-2-----------|
|--------------------|



|-----------------------|#7
|-----------------------|X3
|--5--4-542-54235-------|
|---00-0---0------3-----|

|-----------------------|#8
|-----------------------|X3
|-6--4-532-53245--------|
|--00-0---0------3------|

#3
#4

|----------------------------|#9|----------------------------|#10
|--------3---7---3---7-------|X3|--------5---9---5---9-------|X3
|---55--5---5---5---5---3----|  |---77--7---7---7---7---5----|
|-00--00--00--00--00--00-----|  |-00--00--00--00--00--00-----|

#9

|----------------------------|#11
|----------------------------|X6
|----------------------------|
|-0~---0~5~-0~---0~5---------|

|----------------------------|#12
|----------------------------|X1
|------------------4-3-2-1---|
|--3-5-3-5-2-4-3-5-----------|

Under-solo
|----------------------------|#13
|----------------------------|X4
|----------------------------|
|--55555555-11111111---------|

#3
#4
#7(X2 not X3)
#8(X2 not X3)
#3
#4

Finish with:
|-------------------------------------------------|
|-------------------------------------------------|
|---------------------------------4-3-2-1---------|
|--00-00-00-00-00-00-00-00-0-0-0-0-------434354340|

END

  Visit MetalTabs.com for more metal tablature

bottom separator

Contact Us | Privacy Policy | Disclaimer | Legal Notice
Copyright © 2001-2014 MetalTabs.com. All Rights Reserved.