top separator

Home

Forum

What's New

Submit a Tab

FAQ

Links

Contact Us

Link to Us

MuSpy.com

MetalTabs.com logo

Bands

0-9

A

B

C

D

E

F

G

H

I

J

K

L

M

N

O

P

Q

R

S

T

U

V

W

X

Y

Z

Search

What

Where
 

Neuraxis - "...Of Divinity" Guitar Tab

Plain Text Version
More Neuraxis Tabs

Hits: 6216
Rated: 4.11 out of 5 (9 votes)
Updated: 2004-12-31 12:06:12

 

By:

Kalmahswamp

sendpm.gif

email.gif

Important note
This tab is available online because we obtained explicit permission from Neuraxis or their label.


#----------------------------------PLEASE NOTE---------------------------------#
#This file is the author's own work and represents their interpretation of the #
#song. You may only use this file for private study, scholarship, or research. #
#Unless specified otherwise, this is NOT an official tab from the band members.#
#------------------------------------------------------------------------------#

  Visit MetalTabs.com for more metal tablature
  
Band:  Neuraxis
Album: Truth Beyond...
Song:  ...Of Divinity

Copyright (c)  Galy Records 2002


Transcribed By: Paul Sullivan
Email:          kalmahswamp@yahoo.com


(#)-ghost note
[#]-artificial harmonic
 v -vibrato
{#}-sinle note sweep pick
^#^-true harmonic
 / -slide up
 b -bend
 h -hammer on
 p- pull off

Tunning C A D G B E

Part 1 (play 3 times)
E----------------------------------|---------------------------------|
B----------------------------------|---------------------------------|
G----------------------------------|---------------------------------|
D----------------------------------|---------------------------------|
A-6---3---5------------------------|-6---3--5--1-1--3-3--------------|
C---0---0---0--0--0--0--0-0-0--0-0-|---0---0---3-3--5-5--------------|

Part 2 (4 times)
E--------------------------------------------------------------------|
B--------------------------------------------------------------------|
G--------------------------------------------------------------------|
D--------------------------------------------------------------------|
A---3-6-3---3-6-3---3-6-3---3-6-3---3-5-3---3-5-3----5----6----------|
C-7-------7-------7-------7-------7-------7--------7-7--8-8----------|

Part 3  (sweet pick each note)                              (palm mute)
E-------------------------------------------------------|----------------|
B-------------------------------------------------------|----------------|
G-------------------------------------------------------|----------------|
D-------------------------------------------------------|----------------|
A------------------------3-6-6-5------------------------|3-6-5-1-3-6-5-1-|
C-0-7-10-7-0-10-7-0-10-7----------0-7-10-7-0-10-7-0-10-7|----------------|

Part 4 (rythem) (play 6 times
E--------------------------------------------------------------------|
B--------------------------------------------------------------------|
G--------------------------------------------------------------------|
D--------------------------------------------------------------------|
A-6-6-----6-6---------10-10------10-10-------------------------------|
C-8-8-(8)-8-8-(8)(8)--12-12-(12)-12-12-(12)(12)----------------------|

   Part 4 (Lead)
   (play 3 times)
E------------------|----------------|--------------------------------|
B------------------|----------------|--------------------------------|
G---------3--------|----------------|-3-------3---3-------3---3------|
D------------------|---------3------|--------------------------------|
A-3-6-5-6---6-5-6--|-3-6-5-6---6-[5]|---6-5-6---6---6-5-6---6---v5---|
C------------------|----------------|--------------------------------|
  (lead continued)
E--------------------------------------------------------------------|
B--------------------------------------------------------------------|
G-3-------3---3-------3----------------------------------------------|
D--------------------------------------------------------------------|
A---6-5-6---6---6-5-6---5/8-5-8-[3]----------------------------------|
C--------------------------------------------------------------------|

PART 3

PART 1

Part 5  (play twice)
E--------------------------------------------------------------------|
B--------------------------------------------------------------------|
G--------------------------------------------------------------------|
D-------------------------------{4}----------------------------------|
A-6---3---5-{3}---6---3---5-{6}--------------------------------------|
C---0---0-----------0---0--------------------------------------------|

Part 6
E--------------------------------------------------------------------|
B------------------------------------------------^5^-----------------|
G----------------------------------------------------^5^-------------|
D--------------------------------------------------------^5^---------|
A-3-0---3-0---3-0---3-0---3-0---3-0---3-0---3-0----------------------|
C-5-0---5-0---5-0---5-0---5-0---5-0---5-0---5-0----------------------|

PART 2

Part 7
E--------------------------------------------------------------------|
B--------------------------------------------------------------------|
G--------------------------------------------------------------------|
D-----------------------------------------[3](3)---------------------|
A------------------------------------------------[6]-----------------|
C-0-0-0-0-0-0-0-0-2-4/9---0-0-0-0-0-0-0-0----------------------------|
Part 7 continued
E--------------------------------------------------------------------|
B--------------------------------------------------------------------|
G-----------------[6]------------------------------------------------|
D--------------------------------------------------------------------|
A--------------------------------------------------------------------|
C-0-0-0-0-0-0-0-0-----0-0-0-0-0-0-0-0-2-4/9-0-0-0-0-0-0-0-0----------|

PART 8
(rythem)
E--------------------------------------------------------------------|
B--------------------------------------------------------------------|
G--------------------------------------------------------------------|
D--------------------------------------------------------------------|
A-0-0-0-1--0-0-0-1--0-0-0-1--0-0-0-[5]-------------------------------|
C-0-0-0-3--0-0-0-3--0-0-0-3--0-0-0-----------------------------------|

Part 8 (solo)
E-8----------8----------11-------------------------------------------|
B---8-6---b6---8-6---b8----13-12-13-12h13p12-------------------------|
G-------7----------7------------------------h12p11---12-11-12-v9-----|
D--------------------------------------------------13----------------|
A--------------------------------------------------------------------|
C--------------------------------------------------------------------|

PART 7

PART 1

PART 3

PART 7

PART 8

PART 2

PART 4 (rythem)

Solo
E-------------------------------------------------------------------------------
B-------------------------------------------------------------------------------
G-------------------------------------------------------------------------------
D---------------------------------5h7h9 7h9h10/12-10-12-10-10h12p10-------------
A--------1h3h4-3h5h6-5h7h8-7h9h10----------------------------------h13-13h15p13p
C-7h9h10------------------------------------------------------------------------

E--------------------------------------------------------------------|
B--------------------------------------------------------------------|
G-------------------------v[12]--------------------------------------|
D--------------------------------------------------------------------|
A-11-11h13p11p10-10-12-14--------------------------------------------|
C--------------------------------------------------------------------|

Part 4

  Visit MetalTabs.com for more metal tablature

bottom separator

Contact Us | Privacy Policy | Disclaimer | Legal Notice
Copyright © 2001-2014 MetalTabs.com. All Rights Reserved.