top separator

Home

Forum

What's New

Submit a Tab

FAQ

Links

Contact Us

Link to Us

MuSpy.com

MetalTabs.com logo

Bands

0-9

A

B

C

D

E

F

G

H

I

J

K

L

M

N

O

P

Q

R

S

T

U

V

W

X

Y

Z

Search

What

Where
 

Fluisterwoud - "Langs Galg en Rad" Guitar Tab

Plain Text Version
More Fluisterwoud Tabs

Hits: 3730
Rated: 3.33 out of 5 (3 votes)
Updated: 2004-12-31 12:04:25

 

By:

nyanchuk

sendpm.gif

email.gif

Important note
This tab is available online because we obtained explicit permission from Fluisterwoud or their label.


#----------------------------------PLEASE NOTE---------------------------------#
#This file is the author's own work and represents their interpretation of the #
#song. You may only use this file for private study, scholarship, or research. #
#Unless specified otherwise, this is NOT an official tab from the band members.#
#------------------------------------------------------------------------------#

  Visit MetalTabs.com for more metal tablature
  
Band:  Fluisterwoud
Album: Langs Galg En Rad
Song:  Langs Galg En Rad

Copyright (c) Full Moon Productions (2003)

Transcribed By: nyanchuk
Email:          uklearpower@hotmail.com


Tunning E A D G B E

Intro:
|--------------------------------------------------|
|--------------------------------------------------|
|----444---555---444---333---444---555---444---333-|
|-222444222555222444555333222444222555222444555333-|
|-222222222333222222555111222222222333222222555111-|
|-000---000---000---333---000---000---000---333----\_____
|                                                        \_____
|-------------------------------------|------------------------|
|-------------------------------------|------------------------|
|--------------------------------------------------------------|
|--------------------------------------------------------------|
|-------------------------------------9h10p9-7h9p7-5h7p5-5\----|
|--------------------------------------------------------------|


Riff A:                    x4
|--------------------------|
|--------------------------|
|----444---555---444---333-|
|-222444222555222444555333-|
|-222222222333222222555111-|
|-000---000---000---333----|

play Riff A x2

Riff B:                    x4
|--------------------------|
|--------------------------|
|--------------------------|
|--------------------------|
|-000000000000000000000000-|
|-555555666333555555666333-|

play Riff A x4
play Riff A x2
play Riff B x4

Fill:
|-----------------------------|
|-----------------------------|
|-----------------------------|
|-7---------------------------|
|-7---------------------------|
|-5---------------------------|


Riff C:                          x1
|--------------------------------|
|--------------------------------|
|-556655576666665566555599884444-|
|-556655576666665566555599884444-|
|-334433354444443344333377662222-|
|--------------------------------|

play Riff C x6

play Riff A x4
play Riff A x2
play Riff B x4

play Riff A x4
play Riff A x2
play Riff B x4

End on:
|-----------------------------|
|-----------------------------|
|-----------------------------|
|-7---------------------------|
|-7---------------------------|
|-5---------------------------|


End

  Visit MetalTabs.com for more metal tablature

bottom separator

Contact Us | Privacy Policy | Disclaimer | Legal Notice
Copyright © 2001-2014 MetalTabs.com. All Rights Reserved.