top separator

Home

Forum

What's New

Submit a Tab

FAQ

Links

Contact Us

Link to Us

MuSpy.com

MetalTabs.com logo

Bands

0-9

A

B

C

D

E

F

G

H

I

J

K

L

M

N

O

P

Q

R

S

T

U

V

W

X

Y

Z

Search

What

Where
 

Die Apokalyptischen Reiter - "Gone" Guitar Tab

Plain Text Version
More Die Apokalyptischen Reiter Tabs

Hits: 6779
Rated: 3.40 out of 5 (5 votes)
Updated: 2004-12-31 12:04:15

 

By:

sendpm.gif

email.gif

Important note
This tab is available online because we obtained explicit permission from Die Apokalyptischen Reiter or their label.


#----------------------------------PLEASE NOTE---------------------------------#
#This file is the author's own work and represents their interpretation of the #
#song. You may only use this file for private study, scholarship, or research. #
#Unless specified otherwise, this is NOT an official tab from the band members.#
#------------------------------------------------------------------------------#

  Visit MetalTabs.com for more metal tablature
  
#"Gone" by Die Apokalyptischen Reiter, album: "All you need is love"

This song is originally played on lower tuning but i played it on E
tuning and it sounds almost like the original with slight differences
(instead of power chords (where they're too low) i use chords which you
play the last two strings on the same fret).

Tabbed by Victor Dragomiroff
e-mail: hierophant@abv.bg


Riff 1.1

|----------------------------------------------------------------------|
|----------------------------------------------------------------------|
|----------------------------------------------------------------------|
|-5-----5---------------------------------------------3-5-3~-----------|
|-3-----3-5-----5-6-----6-6-----6-3-----3-5-----5-5-5------------------|
|---------3-----3-4-----4-6-----6-1-----1-5-----5-3--------------------|


Riff 1.2

|----------------------------------------------------------------------|
|----------------------------------------------------------------------|
|----------------------------------------------------------------------|
|----------------------------------------------------------------------|
|-------------------------------------------------6666666666666666-----|
|-888888888888888833333333333333334444444444444444---------------------|


|----------------------------------------------------------------------|
|----------------------------------------------------------------------|
|----------------------------------------------------------------------|
|-----------------------------------------333355553333333333333333-----|
|-----------------5555555555555555----5555-----------------------------|
|-1111111111111111----------------3333---------------------------------|


Repeat Riff 1.2





Riff 2.1

|----------------------------------------------------------------------|
|----------------------------------------------------------------------|
|----------------------------------------------------------------------|
|-----------------------555555----6666666666666666---------------------|
|-6666666666666666666688------6666----------------6666666666666666-----|
|----------------------------------------------------------------------|


|----------------------------------------------------------------------|
|---------------------6666---------------------------------------------|
|----------------------------------------------------------------------|
|-------------------------888888666655555555555555555555555555555555---|
|-55555555555588888888-------------------------------------------------|
|----------------------------------------------------------------------|

Repeat Riff 2.1



Riff 2.2

|----------------------------------------------------------------------|
|----------------------------------------------------------------------|
|----------------------------------------------------------------------|
|-------------5555------------5555------------5555---------------------|
|-666655556666----666655556666----666655556666----6666666666666666-----|
|----------------------------------------------------------------------|


|----------------------------------------------------------------------|
|---------------------6666---------------------------------------------|
|----------------------------------------------------------------------|
|-------------------------888888666655555555555555555555555555555555---|
|-55555555555588888888-------------------------------------------------|
|----------------------------------------------------------------------|
			(same as second line of Riff 2.1)


Repeat Riff 2.1




Riff 3.1

|--------------------------------------------------|
|--------------------------------------------------|
|--------------------------------------------------|
|-------------------------------6-----8-----10-----|
|-------3----x3x3x3-3----x3x3x3-4-----6-----8------|
|-------1----x1x1x1-1----x1x1x1--------------------|


|--------------------------------------------------|
|--------------------------------------------------|
|--------------------------------------------------|
|-------------------------------6-----8-----10-----|
|x3x3x3-3----x3x3x3-3----x3x3x3-4-----6-----8------|
|x1x1x1-1----x1x1x1-1----x1x1x1--------------------|



Riff 3.2

|--------------------------------------------------|
|--------------------------------------------------|
|--------------------------------------------------|
|-------------------------------6-----8-----10-----|
|x3x5x6-3--x3x3x5x6-3--x3x3x5x6-4-----6-----8------|
|x1x3x4-1--x1x1x3x4-1--x1x1x3x4--------------------|


|--------------------------------------------------|
|--------------------------------------------------|
|--------------------------------------------------|
|-------------------------------6-----8-----10-----|
|x3x3x3-3----x3x3x3-3----x3x3x3-4-----6-----8------|
|x1x1x1-1----x1x1x1-1----x1x1x1-------------8------|


Chord after Riff 3.2

|-----------------------------------|
|-----------------------------------|
|-----------------------------------|
|-----------------------------------|
|-4---------------------------------|
|-4---------------------------------|




Solo

|---------------------------------------------9-8------|
|-------------------------------------------------9----|
|---------------------------------3--------------------|
|-----------------------------3---------6-----------10-|
|-4-----------------------4-6--------------------------|
|------------------------------------------------------|


|------------------------------------------------------|
|------------------------------------------------------|
|-11---------------------------------------------------|
|------------------------------------------------------|
|-------------------------4-6--------------------------|
|---------------------------------1--------------------|


|-1311-9-8---9---11-----------------1311-9-8---9---|
|----------------------9---------------------------|
|--------------------------------------------------|
|--------------------------------------------------|
|--------------------------------------------------|
|--------------------------------------------------|


|-11----9-----8--\4----------------|
|----------------------------------|
|----------------------------------|
|----------------------------------|
|----------------------------------|
|----------------------------------|


|---------4---3-4---9-----8-------9-8------------------------------|
|-------------------------------------9\1-2---1--------------------|
|-----5-----------------------------------------1------------------|
|-3-6--------------------------------------------------------------|
|------------------------------------------------------------------|
|------------------------------------------------------------------|




Riff 4

|-----------------------------------------------------------------|
|-----------------------------------------------------------------|
|-----------------------------------------------------------------|
|-----------------------------------------------------------------|
|-4-4-4-4-4-4-4-4-4-4-4-4-4-4-4-4-3-3-3-3-3-3-3-3-3-3-3-3-3-3-3-3-|
|-4-4-4-4-4-4-4-4-4-4-4-4-4-4-4-4-1-1-1-1-1-1-1-1-1-1-1-1-1-1-1-1-|




Repeat Everything up to chord before the solo
and then repeat Riff 3.1 slowing down in the end




Enjoy playing this great song...



VECTOR

  Visit MetalTabs.com for more metal tablature

bottom separator

Contact Us | Privacy Policy | Disclaimer | Legal Notice
Copyright © 2001-2014 MetalTabs.com. All Rights Reserved.