top separator

Home

Forum

What's New

Submit a Tab

FAQ

Links

Contact Us

Link to Us

MetalTabs.com logo

Bands

0-9

A

B

C

D

E

F

G

H

I

J

K

L

M

N

O

P

Q

R

S

T

U

V

W

X

Y

Z

Search

What

Where
 

My Dying Bride - "All Swept Away" Guitar Tab

Plain Text Version
More My Dying Bride Tabs

Hits: 4318
Rated: 4.93 out of 5 (30 votes)
Updated: 2010-02-07 17:51:55

 

By:

Paddy

sendpm.gif

email.gif

Important note
This tab is available online because we obtained explicit permission from My Dying Bride or their label.


#----------------------------------PLEASE NOTE---------------------------------#
#This file is the author's own work and represents their interpretation of the #
#song. You may only use this file for private study, scholarship, or research. #
#Unless specified otherwise, this is NOT an official tab from the band members.#
#------------------------------------------------------------------------------#

  Visit MetalTabs.com for more metal tablature
  
================================================================================
                           M Y   D Y I N G   B R I D E

                                        -

                           A L L   S W E P T   A W A Y
================================================================================


                               LIKE GODS OF THE SUN
                          (c) Peaceville Records (1996)
                           http://www.mydyingbride.org/


                              Tune Down 1 & 1/2 Steps
                                  C# F# B E G# C#

                                 Tempo = 84 BPM
                          Time Signature = 4/4 Throughout



                           -----------------------------
                                  Transcribed by

                                  PADDY MCMULLAN
                            stinkypoohpants@yahoo.co.uk

                                    Version 2.0
                                 6th  January 2010
                      (Corrections Outlined at Bottom of Tab)
                              -----------------------

                              Tablature Symbols Used:


 P.M.. ... -  Palm Mute
 p         -  Pull-Off
 h         -  Hammer-On
 \         -  Slide Down to/Down From (Blank spaces indicate length of slide)
 ( / )     -  Legato Slide (Blank spaces indicate length of slide)
 <1>       -  Pinch Harmonic/Artificial Harmonic
 ~~~       -  Vibrato
 ( )       -  Ghost Note/Tied Note/Implied Note
 x/x/x     -  Pick Scrapes
 REST      -  Rest and sustain rest for the duration of blank space



================================================================================
Section 1: Guitars 1 and 2 with Heavy Distortion (Play 4 times)
================================================================================


||--------------------------------------|
||--------------------------------------|
||--7------------8------------8-----8 \-|
||--7------------8------------8-----8 \-|
||--5---5--5--5--6---6--6--6--6--6--6 \-|
||--5---5--5--5--6---6--6--6--6--6--6 \-|
        .......      .......    ...

|----------------------------------------|
|----------------------------------------|
|--5------------7------------7-----7-----|
|--5------------7------------7-----7-----|
|--3---3--3--3--5---5--5--5--5--5--5--5--|
|--3---3--3--3--5---5--5--5--5--5--5--5--|
       .......      .......    ...   ...

|--------------------------------------|
|--------------------------------------|
|--7------------8------------8-----8 \-|
|--7------------8------------8-----8 \-|
|--5---5--5--5--6---6--6--6--6--6--6 \-|
|--5---5--5--5--6---6--6--6--6--6--6 \-|
       .......      .......    ...

|--------------------------------------------------| |
|--------------------------------------------------| |
|--3-----------3-----------3-----------3-----3-----|*|
|--3-----------3-----------3-----------3-----3-----|*|
|--1--1--1--1--1--1--1--1--1--1--1--1--1--1--1--1--| |
|--1--1--1--1--1--1--1--1--1--1--1--1--1--1--1--1--| |
      .......     .......     .......    ...   ...



================================================================================
Violin Arranged for Guitar [Tuned as Guitar 1 and 2]: (Play 4 times)
================================================================================


||--17----15-17--18---------|----15----17------------|
||--------------------------|-R  ------------15------|
||--------------------------|-E  --------------------|
||--------------------------|-S  --------------------|
||--------------------------|-T  --------------------|
||--------------------------|------------------------|


|--17----15-17--18---------|------------------------| |
|--------------------------|--18--------18----18----| |
|--------------------------|------------------------|*|
|--------------------------|------------------------|*|
|--------------------------|------------------------| |
|--------------------------|------------------------| |



================================================================================
Section 2: Guitar 1 & 2 (Play 5 times)
================================================================================


Guitar 2 rests until the last three chords of bar 2 before joining in


||----------------------------------------|
||----------------------------------------|
||----------------------------------------|
||--2------------2------------------------|
||--2------------2------------------------|
||--0---0--1--4--0---0--1--4--0--0--<1>~~-|
        .......      .............

|________________________[1,2,3,4]
|------------------------------| |
|------------------------------| |
|------------------------------|*|
|--2------------2----10--9--7--|*|
|--2------------2----8---7--5--| |
|--0---0--1--4--0--------------| |
       .......

|_____________________________[5]
|------------------------------||
|------------------------------||
|------------------------------||
|--2------------2----10--9--5--||
|--2------------2----8---7--3--||
|--0---0--1--4--0--------------||
       .......



On repeats 3 and 5 the pinch harmonic note is replaced with <3>~~



================================================================================
Guitars 1 & 2 repeat Section 1 twice
================================================================================

================================================================================
Section 3: Guitars 1 and 2 (Play 4 times)
================================================================================


||----------------------|-----------------------------|
||----------------------|-----------------------------|
||----------------------|-----------------------------|
||-------------5--4-----|-----------------------------|
||-6------5----3--2--3--|-2-2-2--2-2-2--2-2-2--2-2-2--|
||-4------3----------1--|-0-0-0--0-0-0--0-0-0--0-0-0--|
                          .....  .....  .....  .....

|-----------------------------| |
|-----------------------------| |
|-----------------------------|*|
|-----------------------------|*| x 4
|-2-2-2--2-2-2--2-2-2--2-2-2--| |
|-0-0-0--0-0-0--0-0-0--0-0-0--| |
  .....  .....  .....  .....


||----------------------|
||----------------------|
||----------------------|
||-6------5----10-9--7--|
||-6------5----8--7--5--|
||-4------3-------------|



================================================================================
Guitars 1 and 2 repeat Section 2, ending with the following:
================================================================================


||--------------------||
||------------R       ||
||-9  \  -----E       ||
||-9  \  -----S       ||
||-7  \  -----T       ||
||-7  \  -------------||



================================================================================
Rest for 5 bars while the violin plays the following:
================================================================================


||--------------------|-----------------------|
||----------8------7--|-(7)--------10---------|
||-9------------------|-----------------------|
||--------------------|-----------------------|
||--------------------|-----------------------|
||--------------------|-----------------------|


|--------------------|------------------------| |
|--------------------|------------------------| |
|-9------------------|------------------------|*|
|----------9------7--|-(7)-------7--9---------|*|
|--------------------|------------------------| |
|--------------------|------------------------| |




During last two bars of this part Guitar 2 plays the following:


[Steadily drag your pick up the neck]


||-----------------|-----------------||
||-----------------|-----------------||
||-----------------|-----------------||
||-x-/-x-/-x-/-x-/-|-x-/-x-/-x-/-x-/-||
||-x-/-x-/-x-/-x-/-|-x-/-x-/-x-/-x-/-||
||-x-/-x-/-x-/-x-/-|-x-/-x-/-x-/-x-/-||



================================================================================
Section 4.1: Guitars 1 and 2, while guitar 3 plays Lead Riff 1 (Play 4 times)
================================================================================


||-----------------------|------------------------| |
||-----------------------|------------------------| |
||-----------------------|------------------------|*|
||-----------------------|------------------------|*|
||-2----2--2--5----5--4--|-(4)----/ 8--7---(7) \  | |
||-0----0--0--3----3--2--|-(2)----/ 6--5---(5) \  | |
        ....      ...



================================================================================
Section 4.2: Guitar 3 with heavy distortion (Play once)
================================================================================


||--------------------------|---------------------------------|
||--R-  --------------------|-(7/8) p 7--(8 /10)----8--7 h 8--|
||--E-  -9 p 7--9~~----- \--|---------------------------------|
||--S-  --------------------|---------------------------------|
||--R-  --------------------|---------------------------------|
||--------------------------|---------------------------------|


|----------------------------|--8p7----------8p7-----------------|
|--R-  ----------------------|------10p7-8p7-----10p7-8p7-10~~---|
|--E-  -(7/9) p 7--9~~--- \--|-----------------------------------|
|--S-  ----------------------|-----------------------------------|
|--T-  ----------------------|-----------------------------------|
|----------------------------|-----------------------------------|


|--------------------------|---------------------------------|
|--R-  --------------------|-(7/8) p 7--(8 /10)----8--7 h 8--|
|--E-  -9 p 7--9~~----- \--|---------------------------------|
|--S-  --------------------|---------------------------------|
|--T-  --------------------|---------------------------------|
|--------------------------|---------------------------------|


|------------------------------|--10-----------12-----------||
|--R-  ----------------(7 /8)--|------(8 /10)---------------||
|--E-  -(7/9) p 7--9~~---------|----------------------------||
|--S-  ------------------------|----------------------------||
|--T-  ------------------------|----------------------------||
|------------------------------|----------------------------||

   << Fade out >>
|--(12)-------------|--(12)-------------||
|-------------------|-------------------||
|-------------------|-------------------||
|-------------------|-------------------||
|-------------------|-------------------||
|-------------------|-------------------||



================================================================================
Guitars 1 and 2 repeat Section 3 with the following variations:
================================================================================


||-----------------------------|
||-----------------------------|
||-----------------------------|
||-----------------------------|
||-2-2-2--2-2-2--2-2-2--2-2-2--|
||-0-0-0--0-0-0--0-0-0--0-0-0--|
   .....  .....  .....  .....

|-----------------------------|----------------------| |
|-----------------------------|----------------------| |
|-----------------------------|----------------------|*|
|-----------------------------|-------------5--4-----|*|
|-2-2-2--2-2-2--2-2-2--2-2-2--|-6------5----3--2--3--| |
|-0-0-0--0-0-0--0-0-0--0-0-0--|-4------3----------1--| |
  .....  .....  .....  .....



================================================================================
Guitars 1 and 2 repeat Section 1 twice (replace the last bar with the following)
================================================================================


|---------------------------------||
|-------------------------------R ||
|-3-------3-------3-------3-3-3-E ||
|-3-------3-------3-------3-3-3-S ||
|-1-1-1-1-1-1-1-1-1-1-1-1-1-1-1-T ||
|-1-1-1-1-1-1-1-1-1-1-1-1-1-1-1---||
    .....   .....   .....



================================================================================
End
================================================================================


Tab summary:        Section 1 x 4
                    Section 2 x 5
                    Section 1 x 2
                    Section 3 x 4
                    Section 2 x 3
                    Section 4.1 x 4 + 4.2 x 1
                    Section 3 Variation x 4
                    Section 1 x 2

                    END

-------------------------
Corrections (06/01/2010):
-------------------------

* Completely retabbed from scratch.

  Visit MetalTabs.com for more metal tablature

bottom separator

Contact Us | Privacy Policy | Disclaimer | Legal Notice
Copyright © 2001-2014 MetalTabs.com. All Rights Reserved.