top separator

Home

Forum

What's New

Submit a Tab

FAQ

Links

Contact Us

Link to Us

MetalTabs.com logo

Bands

0-9

A

B

C

D

E

F

G

H

I

J

K

L

M

N

O

P

Q

R

S

T

U

V

W

X

Y

Z

Search

What

Where
 

Darkthrone - "The Beast" Guitar Tab

Plain Text Version
More Darkthrone Tabs

Hits: 3383
Rated: 4.00 out of 5 (2 votes)
Updated: 2004-12-31 11:17:24

 

By:

Unadorned

sendpm.gif

email.gif

Important note
This tab is available online because we obtained explicit permission from Darkthrone or their label.


#----------------------------------PLEASE NOTE---------------------------------#
#This file is the author's own work and represents their interpretation of the #
#song. You may only use this file for private study, scholarship, or research. #
#Unless specified otherwise, this is NOT an official tab from the band members.#
#------------------------------------------------------------------------------#

  Visit MetalTabs.com for more metal tablature
  
Band:  Darkthrone
Album: Ravishing Grimness
Song:  The Beast

Copyright (c) Moonfog, 1999
Version 1.0 - 12/27/04

Transcribed By: Mike M.
Send comments, questions, corrections, or complaints to etiax AT msn DOT com.
Please rate if you use this tab, honest feedback will only help me improve.


.  - palm mute           /  - slide up to
\  - slide down to       ~  - vibrato
h  - hammer on           b  - Bend
p  - pull off            Suffixes for bend
t  - tap                 f  - full bend    h - half bend
ph - pinched harmonic    q  - quarter bend t - tap bend
*  - see comment         ^  - Hold bend    r release bend
x  - Stuccatto           ~  - vibrato bend
,  - slight palm mute    () - ghost note, sustained note
"  - tremolo note        <> - Trill
Tuning: Standard (EADGBe)


Riff 1:
|--------------------------------------------------------------------|
|--------------------------------------------------------------------|
|--------------------------------------------------------------------|
|7-7-7-7-7-7-7-7-7-7-5/7\5/7-5-5-5-7-8-8-8-8-8-8-8-8-4-4-4-4-4-4-4-8-|
|7-7-7-7-7-7-7-7-7-7-5/7\5/7-5-5-5-7-8-8-8-8-8-8-8-8-4-4-4-4-4-4-4-8-|
|5-5-5-5-5-5-5-5-5-5-3/5\3/5-3-3-3-5-6-6-6-6-6-6-6-6-2-2-2-2-2-2-2-6-|

Riff 1 (cont'd):
|--------------------------------------------------------------------|
|--------------------------------------------------------------------|
|--------------------------------------------------------------------|
|7-7-7-7-7-7-7-7-7-7-5/7\5/7-5-5-5-7-8-8-8-8-8-8-8-8-6-6-6-6-6-6-6-8-|
|7-7-7-7-7-7-7-7-7-7-5/7\5/7-5-5-5-7-8-8-8-8-8-8-8-8-6-6-6-6-6-6-6-8-|
|5-5-5-5-5-5-5-5-5-5-3/5\3/5-3-3-3-5-6-6-6-6-6-6-6-6-4-4-4-4-4-4-4-6-|

Riff 2:
|--------------------------------------------------------------------|
|--------------------------------------------------------------------|
|--------------------------------------------------------------------|
|9-9-9-9-9-9-9-9-9-9-9-9-9-------------4-4-4-4-4-4-4-7-4-4-4-2-4-4-4-|
|9-9-9-9-9-9-9-9-9-9-9-9-9-------------4-4-4-4-4-4-4-7-4-4-4-2-4-4-4-|
|7-7-7-7-7-7-7-7-7-7-7-7-7-9-9b10~~----2-2-2-2-2-2-2-5-2-2-2-0-2-2-2-|

Riff 3:
|-------------------------------------------------------------|
|-------------------------------------------------------------|
|-------------------------------------------------------------|
|9-9-9-9-9-9-9-9-9-9-9-6------9-9-9-9-9-9-9-9-9-3-3--3-3-2--2-|
|9-9-9-9-9-9-9-9-9-9-9-4------9-9-9-9-9-9-9-9-9-3-3--3-3-2--2-|
|7-7-7-7-7-7-7-7-7-7-7---6~---7-7-7-7-7-7-7-7-7-1-1--1-1-0--0-|

Riff 4:
|--------------------------------------------|
|--------------------------------------------|
|--------------------------------------------|
|-6--6-6-6-6-6-3-3-3-3-3-2--2-2-2-2-2-2--4-5-|
|-6--6-6-6-6-6-3-3-3-3-3-2--2-2-2-2-2-2--4-5-|
|-4--4-4-4-4-4-1-1-1-1-1-0--0-0-0-0-0-0--2-3-|

Riff 5:
|--------------------------------------------|
|--------------------------------------------|
|--------------------------------------------|
|-8--8-8-8-8-8-3-3-3-3-3-2--2-2-2-2-2-2--4-5-|
|-8--8-8-8-8-8-3-3-3-3-3-2--2-2-2-2-2-2--4-5-|
|-6--6-6-6-6-6-1-1-1-1-1-0--0-0-0-0-0-0--2-3-|

End:
|---------|
|---------|
|---------|
|-9---\\2-|
|-9---\\2-|
|-7---\\0-|


Structure:
Riff 1: x4
Riff 2: x4
Riff 1: x2
Riff 2: x4
Riff 3: x4
Riff 4: x8
Riff 5: x2
Riff 4: x2
Riff 3: x4
Riff 1: x2
Riff 2: x4
End:    x1

  Visit MetalTabs.com for more metal tablature

bottom separator

Contact Us | Privacy Policy | Disclaimer | Legal Notice
Copyright © 2001-2014 MetalTabs.com. All Rights Reserved.