top separator

Home

Forum

What's New

Submit a Tab

FAQ

Links

Contact Us

Link to Us

MetalTabs.com logo

Bands

0-9

A

B

C

D

E

F

G

H

I

J

K

L

M

N

O

P

Q

R

S

T

U

V

W

X

Y

Z

Search

What

Where
 

Mithotyn - "Meadow In Silence *" Guitar Tab

Plain Text Version
More Mithotyn Tabs

Hits: 2490
Updated: 2005-09-14 06:09:35

 

By:

Daniil

sendpm.gif

email.gif

Important note
This tab is available online because we obtained explicit permission from Mithotyn or their label.


#----------------------------------PLEASE NOTE---------------------------------#
#This file is the author's own work and represents their interpretation of the #
#song. You may only use this file for private study, scholarship, or research. #
#Unless specified otherwise, this is NOT an official tab from the band members.#
#------------------------------------------------------------------------------#

  Visit MetalTabs.com for more metal tablature
  
MITHOTYN-Meadow In Silence
Meadow In Silence (demo)-1994/King Of The Distant Forest (bonus)-1998
Copuright Invasion Records
Transcribed by Daniil Laletin
e-mail: dlaletin@mail.ru
version 1.5 June 2005

All corrections are welcome.

 " - tremolo
 / - slide down
 \ - slide up
 . - palm mute
 ~ - long sound
 x - rest
 p - pull off
 h - hammer on
 tr - trill
 () - ghost note, sustained note
 * - artificial harmonics
 b - bend

Tuning from low to high: E A D G B E
====================================

 Intro
|-------------------------------------------|
|-------------------------------------------|
|-------------------------------------------|
|-------------------------------------------|gtr 1
|-----7-3-5~-7-5-3-2-------2-3-2-0~-0-0-----|
|-5~-----------------3~--3--------------3~--|
|
|-------------------------------------------|
|-------------------------------------------|
|-------------------------------------------|
|-7---------------------(7)-----------------|gtr 2
|-7---------------------(7)-----------------|
|-5---------------------(5)-----------------|
|
|-------------------------------------------|
|-------------------------------------------|
|-------------------------------------------|
|---------------------------------------5---|clean gtr
|---------------------------------------5---|
|---------------------------------------3---|


 Riff 1a
|-------------------------------------------|
|-------------------------------------------|
|-------------------------------------------|
|-------------------------------------------|gtr 1
|-----7-3-5~-7-5-3-2-------2-3-2-0~-0-0-----|
|-5~-----------------3~--3--------------3~--|
|
|-------------------------------------------|
|-------------------------------------------|
|---------7---------------------------------|
|-7-------7----------5-----------7------5---|gtr 2
|-7-------5----------5-----------7------5---|
|-5------------------3-----------5------3---|
|
|-------------------------------------------|
|-------------------------------------------|
|---------7---------------------------------|
|-7-------7----------5-----------7------5---|clean gtr
|-7-------5----------5-----------7------5---|
|-5------------------3-----------5------3---|



 Riff 1b
|---------------------------------------------|
|---------------------------------------------|
|---------------------------------------------|
|---------------------------------------------|gtr 1
|-----7-3-5~-7-5~-3-2-------2-3-2~-0~-0-0-----|
|-5~------------------3~--3---------------3~--|
|
|---------------------------------------------|
|---------------------------------------------|
|---------------------------------------------|
|-7~---------2-3~-2---------------------------|gtr 2
|-7~--7-3-5~--------5---5-3-2------7~-777-----|
|-5~------------------3---------3~-5~-555-3~--|



 Riff 2
|-------------------------------------------------------|
|-------------------------------------------------------|
|-------------------------------------------------------|
|-------7-7-7-------7-7-7-------7-8-7-5---5-------5-----|gtr 1
|---------------------------------------8---8-7-8---8-7-|
|-5-555-------5-555-------5-555-------------------------|
|
|-------------------------------------------------------|
|-------------------------------------------------------|
|-------------------------------------------------------|
|-------7-7-7-------7-7-7-------7-8-7-5---5-------5-----|gtr 1
|---------------------------------------8---8-7-8---8-7-|
|-5-555-------5-555-------5-555-------------------------|

|----------------------------------------------------|
|----------------------------------------------------|
|-------------------------------------------5-7-4----|
|-------5-5-5-------5-5-5-------5-7-5-------------7~-|gtr 1
|-------------------------------------8-7-8----------|
|-3-333-------3-333-------3-333----------------------|
|
|----------------------------------------------------|
|----------------------------------------------------|
|----------------------------------------------------|
|-------5-5-5-------5-5-5-------5-7-5----------------|gtr 2
|-------------------------------------8-7-8-7-8-5-7~-|
|-3-333-------3-333-------3-333----------------------|

  Visit MetalTabs.com for more metal tablature

bottom separator

Contact Us | Privacy Policy | Disclaimer | Legal Notice
Copyright © 2001-2014 MetalTabs.com. All Rights Reserved.