top separator

Home

Forum

What's New

Submit a Tab

FAQ

Links

Contact Us

Link to Us

MetalTabs.com logo

Bands

0-9

A

B

C

D

E

F

G

H

I

J

K

L

M

N

O

P

Q

R

S

T

U

V

W

X

Y

Z

Search

What

Where
 

Mithotyn - "Trollvisa" Guitar Tab

Plain Text Version
More Mithotyn Tabs

Hits: 2881
Rated: 5.00 out of 5 (3 votes)
Updated: 2005-10-04 21:25:55

 

By:

Daniil

sendpm.gif

email.gif

Important note
This tab is available online because we obtained explicit permission from Mithotyn or their label.


#----------------------------------PLEASE NOTE---------------------------------#
#This file is the author's own work and represents their interpretation of the #
#song. You may only use this file for private study, scholarship, or research. #
#Unless specified otherwise, this is NOT an official tab from the band members.#
#------------------------------------------------------------------------------#

  Visit MetalTabs.com for more metal tablature
  
MITHOTYN-Trollvisa
King Of The Distant Forest-1998
Copyright Invasion Records
Transcribed by Daniil Laletin
e-mail: dlaletin@mail.ru
version 1.5 January 2005

All corrections are welcome.

 " - tremolo
 / - slide down
 \ - slide up
 . - palm mute
 ~ - long sound
 x - rest
 p - pull off
 h - hammer on
 tr - trill
 () - ghost note, sustained note
 * - artificial harmonics
 b - bend

 Tuning from low to high: D G C F A D

================================

 Intro
|--------------------------------------------|
|--------------------------------------------|
|-0-00-3-33-7-7-5-0-00-7-77-5-55-0-0---0-7-7-|bass
|------------------------------------3-------|
|
|--------------------------------------------|
|--------------------------------------------|
|--------------------------------------------|
|--------------------------------------------|gtr 1&2
|--------------------------------------------|
|--------------------------------------------|

|--------------------------------------------|
|--------------------------------------------|
|-0-00-3-33-7-7-5-0-00-7-77-5-55-0-0---0-7-7-|bass
|------------------------------------3-------|
|
|--------------------------------------------|
|--------------------------------------------|
|--------------------------------------------|
|----------------------9-99-7-77-2-2---2-9-9-|gtr 1&2
|----------------------7-77-5-55-0-0-5-0-7-7-|
|------------------------------------3-------|



 Riff 1a
|-------------------------12-8------------------7-8--------|
|-------------------9-10~-------12-10-12---9-10-----10-----|
|----5-7-9-7-5-/9-9----------------------9-------------9---|
|-7~------------.-.--------------------------------------7-|gtr 1
|----------------------------------------------------------|
|----------------------------------------------------------|
|
|----------------------------------------------------------|
|----------------------------------------------------------|
|----------------------------------------------------------|
|-2-22---5-55---9-9--7--2-22---9-99---7-77---2-2---2---9-9-|gtr 2
|-0-00---3-33---7-7--5--0-00---7-77---5-55---0-0---0-5-7-7-|
|----------------------------------------------------3-----|

|-------------------------12-8------------------7-8--------|
|-------------------9-10~-------12-10-12---9-10-----10-----|
|----5-7-9-7-5-/9-9----------------------9-------------9-9-|
|-7~------------.-.----------------------------------------|gtr 1
|----------------------------------------------------------|
|----------------------------------------------------------|
|
|----------------------------------------------------------|
|----------------------------------------------------------|
|----------------------------------------------------------|
|-2-22---5-55---9-9--7--2-22---9-99---7-77---2-2---2---9-9-|gtr 2
|-0-00---3-33---7-7--5--0-00---7-77---5-55---0-0---0-5-7-7-|
|----------------------------------------------------3-----|



 Riff 1b                                  first part
|---------------------------------------------------|
|-----------------------------7-----7-----5~-7-5-5~-|
|-9~-7----7-----------------7-.-9-7-.-9-7-.------.--|
|------10-.-10-9-10~-9-7-7~-------------------------|gtr 1
|------------------------.--------------------------|
|---------------------------------------------------|
|
|---------------------------------------------------|
|---------------------------------------------------|
|---------------------------------------------------|
|-2-22----------2-22---2-22--6-77--77---2-22---2-22-|gtr 2
|-0-00---5-55---0-00---0-00--4-55--55---0-00---0-00-|
|--------3-33----------------4-55--55---------------|
                                                                  second part
|-5-5~-7-5-------------------------------------------------------------------|
|-.-.------5-7-8-7~-8-7-5~-5-5~----------------------------------------------|
|-----------------------.--.-.--7-5-4~-5-7-5~-4-----------4-5-4~-------------|
|-----------------------------------.---------.-7-7~--7-7---------5-7--------|
|-----------------------------------------------.-----,-.-------------7-3-0~-|
|----------------------------------------------------------------------------|
|gtr 1
|----------------------------------------------------------------------------|
|----------------------------------------------------------------------------|
|-------------------------5-55--7-77-----------------------------------------|
|-2-22--2-22--7-77--2-22--3-33--5-55---2-22--2-22---------------2-22---2-22--|
|-0-00--0-00--5-55--0-00--3-33--5-55---0-00--0-00--3-33--5-55---0-00---0-00--|
|-------------5-55---------------------------------1-11--3-33----------------|
 gtr 2


                                                        alternate second part
|-5-5~-7-5-------------------------------------------------------------------|
|-.-.------5-7-8-7~-8-7-5~-5-5~----------------------------------------------|
|-----------------------.--.-.--7-5-4~-5-7-5~-754---------4-5-4~-------------|
|-----------------------------------.--------------7~-7-7---------5-7--------|
|-----------------------------------------------------.-.-------------7-3-0~-|
|----------------------------------------------------------------------------|
|gtr 1
|----------------------------------------------------------------------------|
|----------------------------------------------------------------------------|
|-------------------------5-55--7-77-----------------------------------------|
|-2-22--2-22--7-77--2-22--3-33--5-55---2-22--2-22---------------2-22---2-22--|
|-0-00--0-00--5-55--0-00--3-33--5-55---0-00--0-00--3-33--5-55---0-00---0-00--|
|-------------5-55---------------------------------1-11--3-33----------------|
 gtr 2



 Keyboard ending
|-------------------------12-8------------------7-8----|
|-------------------9-10~-------12-10-12---9-10-----10-|
|----5-7-9-7-5-/9-9----------------------9-------------|
|-7~---------------------------------------------------|
|------------------------------------------------------|
|------------------------------------------------------|

  Visit MetalTabs.com for more metal tablature

bottom separator

Contact Us | Privacy Policy | Disclaimer | Legal Notice
Copyright © 2001-2014 MetalTabs.com. All Rights Reserved.