top separator

Home

Forum

What's New

Submit a Tab

FAQ

Links

Contact Us

Link to Us

MuSpy.com

MetalTabs.com logo

Bands

0-9

A

B

C

D

E

F

G

H

I

J

K

L

M

N

O

P

Q

R

S

T

U

V

W

X

Y

Z

Search

What

Where
 

Dying Fetus - "Bringing Back The Glory" Guitar Tab

Plain Text Version
More Dying Fetus Tabs

Hits: 4174
Rated: 4.56 out of 5 (9 votes)
Updated: 2004-12-27 07:18:33

 

By:

younguitarist

sendpm.gif

email.gif

Important note
This tab is available online because we obtained explicit permission from Dying Fetus or their label.


#----------------------------------PLEASE NOTE---------------------------------#
#This file is the author's own work and represents their interpretation of the #
#song. You may only use this file for private study, scholarship, or research. #
#Unless specified otherwise, this is NOT an official tab from the band members.#
#------------------------------------------------------------------------------#

  Visit MetalTabs.com for more metal tablature
  
BRINGING BACK THE GLORY
                           As recorded by Dying Fetus
                   (From the 2000 Album GROTESQUE IMPALEMENT )

Music by Dying Fetus
Transcribed by Alvaro Ramirez
email - lazyguitarist@gmail.com

Gtr I (Db Gb B E Ab Db) - 'Untitled'
Gtr II (Db Gb B E Ab Db) - 'Untitled'

 Intro
  Q=188
 4/4
  Gtrs I, II
            PM|   PM|   PM|      PM|   PM|
|---------|-----------------|------------------|
|---------|-----------------|------------------|
|---------|-----------------|------------------|
|---------|-----8-----7-----|-10-----9-----7-8-|
|---------|-----6-----5-----|--8-----7-----5-6-|
|---------|-0-0---0-0---0-0-|----0-0---0-0-----|


  PM|   PM|   PM|      PM|   PM|
|-----------------|-------------------|
|-----------------|-------------------|
|-----------------|-------------------|
|-----8-----7-----|-10-----9-----8----|
|-----6-----5-----|--8-----7-----6----|
|-0-0---0-0---0-0-|----0-0---0-0------|


  Gtrs I, II
  PM|   PM|   PM|      PM|   PM|       PM|   PM|   PM|      PM|   PM   ~~~
|-----------------|------------------|-----------------|-------------/15--|
|-----------------|------------------|-----------------|------------------|
|-----------------|------------------|-----------------|------------------|
|-----8-----7-----|-10-----9-----7-8-|-----8-----7-----|-10-----9---------|
|-----6-----5-----|--8-----7-----5-6-|-----6-----5-----|--8-----7---------|
|-0-0---0-0---0-0-|----0-0---0-0-----|-0-0---0-0---0-0-|----0-0---0-------|


 Chorus
  PM|   PM|   PM|      PM|   PM|       PM|   PM|   PM|      PM|   PM   ~~~
|-----------------|------------------|-----------------|-------------/15--|
|-----------------|------------------|-----------------|------------------|
|-----------------|------------------|-----------------|------------------|
|-----8-----7-----|-10-----9-----7-8-|-----8-----7-----|-10-----9---------|
|-----6-----5-----|--8-----7-----5-6-|-----6-----5-----|--8-----7---------|
|-0-0---0-0---0-0-|----0-0---0-0-----|-0-0---0-0---0-0-|----0-0---0-------|


  PM|   PM|   PM|      PM|   PM|       PM|   PM|   PM|      PM|   PM|
|-----------------|------------------|-----------------|-----------------|
|-----------------|------------------|-----------------|-----------------|
|-----------------|------------------|-----------------|-----------------|
|-----8-----7-----|-10-----9-----7-8-|-----8-----7-----|-10-----9-----8--|
|-----6-----5-----|--8-----7-----5-6-|-----6-----5-----|--8-----7-----6--|
|-0-0---0-0---0-0-|----0-0---0-0-----|-0-0---0-0---0-0-|----0-0---0-0----|


  PM|   PM|   PM|      PM|   PM|       PM|   PM|   PM|      PM|   PM  ~~~
|-----------------|------------------|-----------------|------------/15---|
|-----------------|------------------|-----------------|------------------|
|-----------------|------------------|-----------------|------------------|
|-----8-----7-----|-10-----9-----7-8-|-----8-----7-----|-10-----9---------|
|-----6-----5-----|--8-----7-----5-6-|-----6-----5-----|--8-----7---------|
|-0-0---0-0---0-0-|----0-0---0-0-----|-0-0---0-0---0-0-|----0-0---0-------|


  PM|   PM|   PM|      PM|   PM|       PM|   PM|   PM|      PM|   PM|
|-----------------|------------------|-----------------|-----------------|
|-----------------|------------------|-----------------|-----------------|
|-----------------|------------------|-----------------|-----------------|
|-----8-----7-----|-10-----9-----7-8-|-----8-----7-----|-10-----9-----8--|
|-----6-----5-----|--8-----7-----5-6-|-----6-----5-----|--8-----7-----6--|
|-0-0---0-0---0-0-|----0-0---0-0-----|-0-0---0-0---0-0-|----0-0---0-0----|


    Q=185
                                        PM------------|
||------------|------------|----------|-------------------||
||o-----------|------------|----------|------------------o||
||------------|------------|----------|-------------------||
||--7------5--|-8------10--|-7--------|-------------------||
||o-5------3--|-6-------8--|-5--------|-3-2-2-2-3-2-2-2--o||
||--5------3--|-6-------8--|-5--------|-1-0-0-0-1-0-0-0---||


  PM--------------------------------------------------------------------|
|-----------------|-------------------|-----------------|-----------------
|-----------------|-------------------|-----------------|-----------------
|-----------------|-------------------|-----------------|-----------------
|-7-7-7-7-7-7-5-5-|-8-8-8-8-8-8-10-10-|-7-7-7-7-7-7-7-7-|-----------------
|-5-5-5-5-5-5-3-3-|-6-6-6-6-6-6--8--8-|-5-5-5-5-5-5-5-5-|-3-2-2-2-3-2-2-2-
|-5-5-5-5-5-5-3-3-|-6-6-6-6-6-6--8--8-|-5-5-5-5-5-5-5-5-|-1-0-0-0-1-0-0-0-


  PM--------------------------------------------------------------------|
|-----------------|-------------------|-----------------|-----------------|
|-----------------|-------------------|-----------------|-----------------|
|-----------------|-------------------|-----------------|-----------------|
|-7-7-7-7-7-7-5-5-|-8-8-8-8-8-8-10-10-|-7-7-7-7-7-7-7-7-|-----------------|
|-5-5-5-5-5-5-3-3-|-6-6-6-6-6-6--8--8-|-5-5-5-5-5-5-5-5-|-3-2-2-2-3-2-3-2-|
|-5-5-5-5-5-5-3-3-|-6-6-6-6-6-6--8--8-|-5-5-5-5-5-5-5-5-|-1-0-0-0-1-0-1-0-|


  Q=220
  Gtr I
|------------------|--------------------|
|------------------|--------------------|
|------------------|--------------------|
|------------------|--------------------|
|-3----------------|--------------------|
|-1---------10-----|---------11-10-9-10-|
|
| Gtr II
|------------------|--------------------|
|------------------|--------------------|
|------------------|--------------------|
|------------------|--------------------|
|-3----------------|--------------------|
|-1-0-0-0-0-10-0-0-|-0-0-0-0-11-10-9-10-|


|------------------|---------------------|
|------------------|---------------------|
|------------------|---------------------|
|------------------|---------------------|
|------------------|---------------------|
|---------10-------|----------10-11-13---|
|
|------------------|---------------------|
|------------------|---------------------|
|------------------|---------------------|
|------------------|---------------------|
|------------------|---------------------|
|-0-0-0-0-10-0-0-0-|--0-0-0-0-10-11-13---|


    Q=230
    Gtrs I, II
||-------------------|--------------------|
||o------------------|--------------------|
||-------------------|--------------------|
||-------------------|--------------------|
||o-3----------------|--------------------|
||--1-0-0-0-0-10-0-0-|-0-0-0-0-11-10-9-10-|


                                       4x
|------------------|-------------------||
|------------------|------------------o||
|------------------|-------------------||
|------------------|-------------------||
|------------------|------------------o||
|-0-0-0-0-10-0-0-0-|-0-0-0-0-10-11-13--||


    Q=188
    PM|   PM|   PM|      PM|   PM|       PM|   PM|   PM|      PM|   PM  ~~~
                                                                            5x
||------------------|------------------|-----------------|------------/15---||
||o-----------------|------------------|-----------------|-----------------o||
||------------------|------------------|-----------------|------------------||
||------8-----7-----|-10-----9-----7-8-|-----8-----7-----|-10-----9---------||
||o-----6-----5-----|--8-----7-----5-6-|-----6-----5-----|--8-----7--------o||
||--0-0---0-0---0-0-|----0-0---0-0-----|-0-0---0-0---0-0-|----0-0---0-------||


  PM|   PM|   PM|      PM|   PM|       PM|   PM|   PM|      PM|   PM|
|-----------------|------------------|-----------------|-----------------|
|-----------------|------------------|-----------------|-----------------|
|-----------------|------------------|-----------------|-----------------|
|-----8-----7-----|-10-----9-----7-8-|-----8-----7-----|-10-----9-----8--|
|-----6-----5-----|--8-----7-----5-6-|-----6-----5-----|--8-----7-----6--|
|-0-0---0-0---0-0-|----0-0---0-0-----|-0-0---0-0---0-0-|----0-0---0-0----|


    Q=185
                                        PM------------|
||------------|------------|----------|-----------------||
||o-----------|------------|----------|----------------o||
||------------|------------|----------|-----------------||
||--7------5--|-8------10--|-7--------|-----------------||
||o-5------3--|-6-------8--|-5--------|-3-2-2-2-3-2-2-2o||
||--5------3--|-6-------8--|-5--------|-1-0-0-0-1-0-0-0-||


  PM--------------------------------------------------------------------|
|-----------------|-------------------|-----------------|-----------------|
|-----------------|-------------------|-----------------|-----------------|
|-----------------|-------------------|-----------------|-----------------|
|-7-7-7-7-7-7-5-5-|-8-8-8-8-8-8-10-10-|-7-7-7-7-7-7-7-7-|-----------------|
|-5-5-5-5-5-5-3-3-|-6-6-6-6-6-6--8--8-|-5-5-5-5-5-5-5-5-|-3-2-2-2-3-2-2-2-|
|-5-5-5-5-5-5-3-3-|-6-6-6-6-6-6--8--8-|-5-5-5-5-5-5-5-5-|-1-0-0-0-1-0-0-0-|


  PM--------------------------------------------------------------------|
|-----------------|-------------------|-----------------|-----------------|
|-----------------|-------------------|-----------------|-----------------|
|-----------------|-------------------|-----------------|-----------------|
|-7-7-7-7-7-7-5-5-|-8-8-8-8-8-8-10-10-|-7-7-7-7-7-7-7-7-|-----------------|
|-5-5-5-5-5-5-3-3-|-6-6-6-6-6-6--8--8-|-5-5-5-5-5-5-5-5-|-3-2-2-2-3-2-3-2-|
|-5-5-5-5-5-5-3-3-|-6-6-6-6-6-6--8--8-|-5-5-5-5-5-5-5-5-|-1-0-0-0-1-0-1-0-|


|----------|------------|------------|--------|
|----------|------------|------------|--------|
|----------|------------|------------|--------|
|----------|------------|------------|--------|
|-2--------|-(2)--------|-(2)--------|-(2)----|
|-0--------|-(0)--------|-(0)--------|-(0)----|


    Q=220
         PM-|          PM         PM    PM------|
||-------------|-------------|-------------|------------|
||o------------|-------------|-------------|------------|
||-------------|-------------|-------------|------------|
||-------------|-------------|-------------|------------|
||o-2----------|-5--7-----8--|-7-----5-----|-------8----|
||--0----0--0--|-3--5--0--6--|-5--0--3--0--|-0--0--6----|


       PM-|          PM         PM    PM------|
                                                      8x
|------------|-------------|-------------|------------||
|------------|-------------|-------------|-----------o||
|------------|-------------|-------------|------------||
|------------|-------------|-------------|------------||
|-2----------|-5--7-----8--|-7-----5-----|-8--7--5---o||
|-0----0--0--|-3--5--0--6--|-5--0--3--0--|-6--5--3----||


|------------------|--------------------|------------------|-------------------|
|------------------|--------------------|------------------|-------------------|
|------------------|--------------------|------------------|-------------------|
|------------------|--------------------|------------------|-------------------|
|-3----------------|--------------------|------------------|-------------------|
|-1---------10-----|---------11-10-9-10-|---------10-------|---------10-11-13--|
|
| Gtr II
|------------------|--------------------|------------------|-------------------|
|------------------|--------------------|------------------|-------------------|
|------------------|--------------------|------------------|-------------------|
|------------------|--------------------|------------------|-------------------|
|-3----------------|--------------------|------------------|-------------------|
|-1-0-0-0-0-10-0-0-|-0-0-0-0-11-10-9-10-|-0-0-0-0-10-0-0-0-|-0-0-0-0-10-11-13--|


||-------------------|--------------------|
||o------------------|--------------------|
||-------------------|--------------------|
||-------------------|--------------------|
||o-3----------------|--------------------|
||--1-0-0-0-0-10-0-0-|-0-0-0-0-11-10-9-10-|


|------------------|-------------------||
|------------------|------------------o||
|------------------|-------------------||
|------------------|-------------------||
|------------------|------------------o||
|-0-0-0-0-10-0-0-0-|-0-0-0-0-10-11-13--||


The end..

Tablature Legend
----------------
 h   - hammer-on
 p   - pull-off
 b   - bend
 pb  - pre-bend
 r   - bend release (if no number after the r, then release immediately)
 /\  - slide into or out of (from/to "nowhere")
 s   - legato slide
 S   - shift slide
<n>  - natural harmonic
[n]  - artificial harmonic
n(n) - tapped harmonic
 ~   - vibrato
 tr  - trill
 T   - tap
 TP  - trem. picking
 PM  - palm muting
\n/  - tremolo bar dip; n = amount to dip
 \n  - tremolo bar down
 n/  - tremolo bar up
/n\  - tremolo bar inverted dip
 =   - hold bend; also acts as connecting device for hammers/pulls
 <>  - volume swell (louder/softer)
 x   - on rhythm slash represents muted slash
 o   - on rhythm slash represents single note slash

Misc Legend
-----------
 |  - bar
||  - double bar
||o - repeat start
o|| - repeat end
*|  - double bar (ending)
 :  - bar (freetime)
 $  - Segno
 &  - Coda

  Visit MetalTabs.com for more metal tablature

bottom separator

Contact Us | Privacy Policy | Disclaimer | Legal Notice
Copyright © 2001-2014 MetalTabs.com. All Rights Reserved.