top separator

Home

Forum

What's New

Submit a Tab

FAQ

Links

Contact Us

Link to Us

MetalTabs.com logo

Bands

0-9

A

B

C

D

E

F

G

H

I

J

K

L

M

N

O

P

Q

R

S

T

U

V

W

X

Y

Z

Search

What

Where
 

At The Gates - "The Red in the Sky Is Ours / The Season to Some" Guitar Tab

Plain Text Version
More At The Gates Tabs

Hits: 3932
Rated: 4.50 out of 5 (2 votes)
Updated: 2004-12-27 07:01:59

 

By:

sendpm.gif

email.gif

Important note
This tab is available online because we obtained explicit permission from At The Gates or their label.


#----------------------------------PLEASE NOTE---------------------------------#
#This file is the author's own work and represents their interpretation of the #
#song. You may only use this file for private study, scholarship, or research. #
#Unless specified otherwise, this is NOT an official tab from the band members.#
#------------------------------------------------------------------------------#

  Visit MetalTabs.com for more metal tablature
  
Band:  At The Gates
Album: The Red In The Sky Is Ours
Song:  The Season to Come

Copyright (c)  Deaf Records 1992

Transcribed By: Immoricide
Email:          Immoricide_ff@mail.ru

The first violin is played by guitar here

|------------------------------------------------|
|8---7---5-------8-1012--7-8-10--5-7-8-5-7---5---|
|------------------------------------------------|
|------------------------------------------------|
|------------------------------------------------|
|------------------------------------------------|

|------------------------------------------------|
|12--12--8---878-10--8---7---5---5---4---5~------|
|------------------------------------------------|
|------------------------------------------------|
|------------------------------------------------|
|------------------------------------------------|

|------------------------------------------------|
|8---7---5-------8-1012--7-8-10--5-7-8-5-7---5---|
|------------------------------------------------|
|------------------------------------------------|
|------------------------------------------------|
|------------------------------------------------|

|------------------------------------------------|
|12--12--8---878-10--898-7---5---5---4---5~------|
|------------------------------------------------|
|------------------------------------------------|
|------------------------------------------------|
|------------------------------------------------|

|------------------------------------------------|
|8---8---8---12--10--8---7---5---5---4---5~------|
|------------------------------------------------|play
|------------------------------------------------| 2x
|------------------------------------------------|
|------------------------------------------------|

|7---7---7---5-7-8---7---5-----------------------|
|----------8-----------------8---7---5---4~------|
|------------------------------------------------|play
|------------------------------------------------| 2x
|------------------------------------------------|
|------------------------------------------------|

|7---7-5---------1012108-7---5-------5-----------|
|--------8---8-----------------8-7-8---5-7~------|
|------------------------------------------------|play
|------------------------------------------------| 4x
|------------------------------------------------|
|------------------------------------------------|

|12--12--10--14--12--10--9---7---7---6---7~----9-|  -
|------------------------------------------------|  |
|------------------------------------------------|  |
|------------------------------------------------|  |
|------------------------------------------------|  |
|------------------------------------------------|  |
								 play 2x
|1012109-7---6-----7-5---------------------------|  |
|----------------8-----8-7---5---5---4---5~------|  |
|------------------------------------------------|  |
|------------------------------------------------|  |
|------------------------------------------------|  |
|------------------------------------------------|  -


END

  Visit MetalTabs.com for more metal tablature

bottom separator

Contact Us | Privacy Policy | Disclaimer | Legal Notice
Copyright © 2001-2014 MetalTabs.com. All Rights Reserved.