top separator

Home

Forum

What's New

Submit a Tab

FAQ

Links

Contact Us

Link to Us

MuSpy.com

MetalTabs.com logo

Bands

0-9

A

B

C

D

E

F

G

H

I

J

K

L

M

N

O

P

Q

R

S

T

U

V

W

X

Y

Z

Search

What

Where
 

Inquisition (CO) - "Into The Infernal Regions Of The Ancient Cult" Guitar Tab

Plain Text Version
More Inquisition (CO) Tabs

Hits: 3389
Rated: 5.00 out of 5 (1 vote)
Updated: 2004-12-24 06:36:01

 

By:

nyanchuk

sendpm.gif

email.gif

Important note
We did our best to reach Inquisition (CO) and ask for their permission to publish this tab. Unfortunately they did not respond to our requests or we could not find a way to contact them. This tab is available online until Inquisition (CO) tells us to take it down.


#----------------------------------PLEASE NOTE---------------------------------#
#This file is the author's own work and represents their interpretation of the #
#song. You may only use this file for private study, scholarship, or research. #
#Unless specified otherwise, this is NOT an official tab from the band members.#
#------------------------------------------------------------------------------#

  Visit MetalTabs.com for more metal tablature
  
Band:  Inquisition
Album: Into The Infernal Regions of the Ancient Cult
Song:  Into The Infernal Regions Of The Ancient Cult

Copyright (c)  SYLPHORIUM RECORDS (1997)

Transcribed By: nyanchuk
Email:          uklearpower@hotmail.com


Tunning D G C F A D

Riff A:            x12
|------------------|
|------------------|
|------------------|
|-2222222222223355-|
|-2222222222223355-|
|-0000000000001133-|


Riff B:               x4
|---------------------|
|---------------------|
|---991010-77--779955-|
|-22991010-7722779955-|
|-2277-8-8-5522557733-|
|-00---------00-------|

play Riff A x8
play Riff B x4


Riff A2:               x8
|----------------------|
|----------------------|
|-------------10101212-|
|-22222222222210101212-|
|-222222222222-8-81010-|
|-000000000000---------|

play Riff B x4


Riff C:            x8
|-0-----------3-3--|
|-0-----------3-3--|
|-0-----------3-3--|
|-2-----------5-5--|
|-2-----------5-5--|
|-0-----------3-3--|


Riff D:                            x8
|-0---------------0----------------|
|-0---------------0----------------|
|-0---------------0----------------|
|-22222222222277772222222222225555-|
|-22222222222255772222222222223355-|
|-00000000000055550000000000003333-|


Riff E:                                            x6
|----------1-----------------------1-----------1---|
|----------1-----------------------1-----------1---|
|----------1-----------------------1-----------1---|
|-2-222-2-23--2-222-2-35--2-222-2-23--2-222-5653---|
|-2-222-2-23--2-222-2-35--2-222-2-23--2-222-5653---|
|-0-000-0-01--0-000-0-13--0-000-0-01--0-000-3431---|


Riff F:
|-----------------------------------------------------------------
|-------------------------------------------------------0---0---0-
|-----------------------------------------------------0---5---5---
|-2-2-2-2-2-2-2-2-2-2-2-2-2-2-2-2-2-2-2-2-2-2-2-2---5-------------
|-2-2-2-2-2-2-2-2-2-2-2-2-2-2-2-2-2-2-2-2-2-2-2-2-3---------------
|-0-0-0-0-0-0-0-0-0-0-0-0-0-0-0-0-0-0-0-0-0-0-0-0-----------------
  pm.............................................
							           x2
 -----------------------------------------------------------------|
 -------------------------------------------------------0-3---3---|
 -----------------------------------------------------0-----5---5-|
 -2-2-2-2-2-2-2-2-2-2-2-2-2-2-2-2-2-2-2-2-2-2-2-2---5-------------|
 -2-2-2-2-2-2-2-2-2-2-2-2-2-2-2-2-2-2-2-2-2-2-2-2-3---------------|
 -0-0-0-0-0-0-0-0-0-0-0-0-0-0-0-0-0-0-0-0-0-0-0-0-----------------|
  pm.............................................

play Riff F x2 (under samples)


Riff G:                                                                      x4
|----------------------------------------------------------------------------|
|----------------------------------------------------------------------------|
|-------------------------91097--7975----------------------------------------|
|-2-222-2-222-2-222-2-222-91097--7975--2-222-2-222-2-222-2-222-91097--7975---|
|-2-222-2-222-2-222-2-222-7-875--5753--2-222-2-222-2-222-2-222-91097--7975---|
|-0-000-0-000-0-000-0-000--------------0-000-0-000-0-000-0-000-7-875--5753---|


Ending:             fadeout x6
|--------------------------|
|--------------------------|
|--------------------------|
|-2-222-2-222-2-222-2-222--|
|-2-222-2-222-2-222-2-222--|
|-0-000-0-000-0-000-0-000--|






The End

  Visit MetalTabs.com for more metal tablature

bottom separator

Contact Us | Privacy Policy | Disclaimer | Legal Notice
Copyright © 2001-2014 MetalTabs.com. All Rights Reserved.