top separator

Home

Forum

What's New

Submit a Tab

FAQ

Links

Contact Us

Link to Us

MetalTabs.com logo

Bands

0-9

A

B

C

D

E

F

G

H

I

J

K

L

M

N

O

P

Q

R

S

T

U

V

W

X

Y

Z

Search

What

Where
 

Suidakra - "Hall Of Tales" Guitar Tab

Plain Text Version
More Suidakra Tabs

Hits: 4441
Rated: 4.71 out of 5 (7 votes)
Updated: 2004-12-24 06:33:46

 

By:

Kalmahswamp

sendpm.gif

email.gif

Important note
This tab is available online because we obtained explicit permission from Suidakra or their label.


#----------------------------------PLEASE NOTE---------------------------------#
#This file is the author's own work and represents their interpretation of the #
#song. You may only use this file for private study, scholarship, or research. #
#Unless specified otherwise, this is NOT an official tab from the band members.#
#------------------------------------------------------------------------------#

  Visit MetalTabs.com for more metal tablature
  
Band:  Suidakra
Album: Auld Lang Syne
Song:  Hall of Tales

Copyright (c)  Last Episode Productions 1998


Transcribed By: Paul Sullivan
Email:          kalmahswamp@yahoo.com


Tunning E A D G B E

PART 1
(sweep pick each note)
E-------------------------------------------------------------------|
B------10-----------------------------------------------------------|
G---7-----10-9--10-9-7-9--7-----------------------------------------|
D-7-------------------------9-10-7----------------------------------|
A-------------------------------------------------------------------|
E-------------------------------------------------------------------|

PART 2

E-------------------------------------------------------------------|
B-------------------------------------------------------------------|
G-------------------------------------------------------------------|
D-------------------------------------------------------------------|
A----------0----------2h3----------0----------3-2h3p2---------------|
E-5--5-5-5---5--5-5-5-----5--5-5-5---5--5-5-5---------h3------------|

E-------------------------------------------------------------------|
B-------------------------------------------------------------------|
G-------------------------------------------------------------------|
D-------------------------------------------------------------------|
A----------0----------2h3-10-------10--------9--------5-------------|
E-5--5-5-5---5--5-5-5-----8--8-8-8-8--8-8-8--7-7-7-7--3-------------|

PART 1

PART 3 (sweep pick each note)

E--------------------|-----------------------------------------------|
B--------------------|-----------------------------------------------|
G-5-4-7-5---5-7-10-9-|-----------------------------------------------|
D--------------------|-----3-5-2-------------------------------------|
A--------------------|-3-5---------3-5---2-5-------------------------|
E--------------------|-----------------3-----5-----------------------|


PART 4 (approx 2:10 into song)(harmonize after twice through)

E-------------------------------------------------------------------|
B-------------------------------------------------------------------|
G---------9-7-------9-7---------------------------------------------|
D-7-9-7-9-----9-10------10-7---------7------------------------------|
A----------------------------10-7-10--------------------------------|
E-------------------------------------------------------------------|


PART 5 (2:44)

E-------------------------------------------------------------------|
B-------------------------------------------------------------------|
G----------------9-10-9-7-------------------------------------------|
D-10-9-10-7-10-9----------10-9--10-9-7-9-7-----7-9-10-10-9-7--------|
A------------------------------------------10-----------------------|
E-------------------------------------------------------------------|

(theres another part here, but its impossible to figure it out because its
drowned out by the keyboards)

PART 5

PART 6



E-------------------------------------------------------------------|
B----------------------------------10-9h10p9------------------------|
G-----------7-9-7h9p7------------------------10-9-------------------|
D-7-10-9-10-----------h10p9p7---------------------10----------------|
A-------------------------------------------------------------------|
E-------------------------------------------------------------------|


PART 2

PART 1

  Visit MetalTabs.com for more metal tablature

bottom separator

Contact Us | Privacy Policy | Disclaimer | Legal Notice
Copyright © 2001-2014 MetalTabs.com. All Rights Reserved.