top separator

Home

Forum

What's New

Submit a Tab

FAQ

Links

Contact Us

Link to Us

MuSpy.com

MetalTabs.com logo

Bands

0-9

A

B

C

D

E

F

G

H

I

J

K

L

M

N

O

P

Q

R

S

T

U

V

W

X

Y

Z

Search

What

Where
 

Darkthrone - "Slottet i Det Fjerne" Guitar Tab

Plain Text Version
More Darkthrone Tabs

Hits: 6573
Rated: 4.25 out of 5 (4 votes)
Updated: 2004-12-24 06:31:22

 

By:

sendpm.gif

email.gif

Important note
This tab is available online because we obtained explicit permission from Darkthrone or their label.


#----------------------------------PLEASE NOTE---------------------------------#
#This file is the author's own work and represents their interpretation of the #
#song. You may only use this file for private study, scholarship, or research. #
#Unless specified otherwise, this is NOT an official tab from the band members.#
#------------------------------------------------------------------------------#

  Visit MetalTabs.com for more metal tablature
  
Tab Author: Dark_Throne
Type of the tab: G
Band: Darkthrone
Album: Transilvanian Hunger
Song: Slottet i Det Fjerne
e-mail: Psycho_dB@gmx.de


e|-------------|
H|-------------|
G|-------------|
D|-------------| x8
A|-8-9-8-9-9-7-|
E|-6-6-6-6-7-5-|


e|-----------------|
H|-----------------|
G|-----------------|
D|-----------------| x4
A|-5-4-5-4-4-3-4-3-|
E|-2-2-2-2-1-1-1-1-|


e|--------------------------------------|
H|--------------------------------------|
G|-11-12-11-7-9-7-10-12-10-12-14-15-----|
D|-11-11-11-7-7-7-10-10-10-12-12-12-----|
A|--9--9--9-5-5-5--8--8--8-10-10-10-----|
E|--------------------------------------|
 |or(if this is too complicated for you)| x2
e|--------------------------------------|
H|--------------------------------------|
G|-11-12-11-7-9-7-10-12-10-12-14-15-----|
D|-11-11-11-7-7-7-10-10-10-12-12-12-----|
A|--------------------------------------|
E|--------------------------------------|


e|-------------|
H|-------------|
G|-------------|
D|-------------| x8
A|-8-9-8-9-9-7-|
E|-6-6-6-6-7-5-|


e|-----------------|
H|-----------------|
G|-----------------|
D|-----------------| x4
A|-5-4-5-4-4-3-4-3-|
E|-2-2-2-2-1-1-1-1-|


e|--------------------------------------|
H|--------------------------------------|
G|-11-12-11-7-9-7-10-12-10-12-14-15-----|
D|-11-11-11-7-7-7-10-10-10-12-12-12-----|
A|--9--9--9-5-5-5--8--8--8-10-10-10-----|
E|--------------------------------------|
 |or(if this is too complicated for you)| x4
e|--------------------------------------|
H|--------------------------------------|
G|-11-12-11-7-9-7-10-12-10-12-14-15-----|
D|-11-11-11-7-7-7-10-10-10-12-12-12-----|
A|--------------------------------------|
E|--------------------------------------|


The end...

  Visit MetalTabs.com for more metal tablature

bottom separator

Contact Us | Privacy Policy | Disclaimer | Legal Notice
Copyright © 2001-2014 MetalTabs.com. All Rights Reserved.