top separator

Home

Forum

What's New

Submit a Tab

FAQ

Links

Contact Us

Link to Us

MetalTabs.com logo

Bands

0-9

A

B

C

D

E

F

G

H

I

J

K

L

M

N

O

P

Q

R

S

T

U

V

W

X

Y

Z

Search

What

Where
 

Inquisition (CO) - "Magnificent glorification of Lucifer" Guitar Tab

Plain Text Version
More Inquisition (CO) Tabs

Hits: 3406
Rated: 4.00 out of 5 (1 vote)
Updated: 2004-12-19 08:40:23

 

By:

nyanchuk

sendpm.gif

email.gif

Important note
We did our best to reach Inquisition (CO) and ask for their permission to publish this tab. Unfortunately they did not respond to our requests or we could not find a way to contact them. This tab is available online until Inquisition (CO) tells us to take it down.


#----------------------------------PLEASE NOTE---------------------------------#
#This file is the author's own work and represents their interpretation of the #
#song. You may only use this file for private study, scholarship, or research. #
#Unless specified otherwise, this is NOT an official tab from the band members.#
#------------------------------------------------------------------------------#

  Visit MetalTabs.com for more metal tablature
  
Band:  Inquisition
Album: MAGNIFICENT GLORIFICATION OF LUCIFER
Song: MAGNIFICENT GLORIFICATION OF LUCIFER

Copyright (c) No Colours (2004)

Transcribed By: nyanchuk
Email:          uklearpower@hotmail.com


Tunning D G C F A D

Riff A:                            x4
|-------------1-----------1---1----|
|-----1-----1---1-----1----1---1---|
|-2-2---2-2-------2-2---2---2---2--|
|-2-------2-------2----------------|
|-0-------0-------0----------------|
|---------*------------------------|


Riff B:                            x8
|---------------------1------------|
|-------------------1--------------|
|-------2-----2---2-----2-----2----|
|---0---2-----2---------2-----2----|
|-3---2-0-----0---------0-----0----|
|----------------------------------|


Fill:
 ----3--------1-----
 ----3--------1-----
 -5--5-----3--3-----
 -5-----5--3-----3--
 -3-----5--1-----3--
 -------3--------1--

play Riff B x8
play Fill


Pause (half rest)


Riff C:                            x4
|----------------------------------|
|----------------------------------|
|-2-0-3-2-2-0-3-2-2-0-3-2-2-0-3-2--|
|-2-0-3-2-2-0-3-2-2-0-3-2-2-0-3-2--|
|-0-0-1-0-0-0-1-0-0-0-1-0-0-0-1-0--|
|----------------------------------|

play Riff C x4
play Fill
play Riff C x4

play Riff A x4 (second repetition,
		there is a 3 on the C string thrown
		in [an Eb] on the note with the *)
play Riff B x8
play Riff B x8
fadeout Riff B x4



The End

  Visit MetalTabs.com for more metal tablature

bottom separator

Contact Us | Privacy Policy | Disclaimer | Legal Notice
Copyright © 2001-2014 MetalTabs.com. All Rights Reserved.