top separator

Home

Forum

What's New

Submit a Tab

FAQ

Links

Contact Us

Link to Us

MetalTabs.com logo

Bands

0-9

A

B

C

D

E

F

G

H

I

J

K

L

M

N

O

P

Q

R

S

T

U

V

W

X

Y

Z

Search

What

Where
 

Macabre - "Vampire Of Dusseldorf / Peter Kurtin" Guitar Tab

Plain Text Version
More Macabre Tabs

Hits: 5664
Rated: 3.00 out of 5 (1 vote)
Updated: 2004-12-19 08:34:16

 

By:

sinister_slaughter

sendpm.gif

email.gif

Important note
This tab is available online because we obtained explicit permission from Macabre or their label.


#----------------------------------PLEASE NOTE---------------------------------#
#This file is the author's own work and represents their interpretation of the #
#song. You may only use this file for private study, scholarship, or research. #
#Unless specified otherwise, this is NOT an official tab from the band members.#
#------------------------------------------------------------------------------#

  Visit MetalTabs.com for more metal tablature
  
Band:  (Macabre)
Album: (Sinister Slaughter)
Song:  (Vampire of Dusseldorf)

Copyright (c)  (Nuclear Blast America) (1993)
Version 1.0 - (12/16/04)

Transcribed By: (Andrew Mathews)
Email:          (kbc489@earthlink.net)


.  - palm mute           /  - slide up to
\  - slide down to       ~  - vibrato
h  - hammer on           b  - Bend
p  - pull off            Suffixes for bend
t  - tap                 f  - full bend    h - half bend
ph - pinched harmonic    q  - quarter bend t - tap bend
*  - see comment         ^  - Hold bend    r release bend
x  - Stuccatto           ~  - vibrato bend
,  - slight palm mute    () - ghost note, sustained note
"  - tremolo note        <> - Trill

Tuning Eb Ab Db Gb Bb Eb

Piano Melody


Riff 1 x4
|-------------------------------------------------------------------|
|-------------------------------------------------------------------|
|-------------------------------------------------------------------|
|-------555444------444333------555444--7---6-----------------------|
|---------------------------------------5-8-4-----------------------|
|-000333------000222------000333----------6-------------------------|
  ....................................    .

Chorus x2
|-------------------------------------------------------------------|
|-------------------------------------------------------------------|
|-------------------------------------------------------------------|
|9--9--7--9--6-66---6-6---6-(6)------6------------6-----9-7---------|
|-----------------------9----7-77--7---9-7-999--7---9-7-----7-------|
|-------------------------------------------------------------------|

Riff 1 x4
Chorus x2
Riff 1 x2

Bridge
|-------------------------------------------------------------------|
|-------------------------------------------------------------------|
|-------------------------------------------------------------------|
|-------5ph-4ph-------4ph-3ph-------3ph-2ph-------2ph-1ph-----------|
|-------------------------------------------------------------------|
|-0-3ph---------0-2ph---------0-3ph---------0-2ph-------------------|

|-------------------------------------------------------------------|
|-------------------------------------------------------------------|
|-------------------------------------------------------------------|
|---------8ph-7ph---------7ph-6ph---------6ph-5ph---------5ph-4ph---|
|-------------------------------------------------------------------|
|-3ph-6ph---------3ph-5ph---------3ph-6ph---------3ph-5ph-----------|

|-------------------------------------------------------------------|
|-------------------------------------------------------------------|
|---------10ph-9ph---------9ph-8ph---------8ph-7ph---------7ph-6ph--|
|-------------------------------------------------------------------|
|-5ph-8ph----------5ph-7ph---------5ph-8ph---------5ph-7ph----------|
|-------------------------------------------------------------------|

|-------------------------------------------------------------------|
|-------------------------------------------------------------------|
|-------------------------------------------------------------------|
|---------8ph-7ph---------7ph-6ph---------6ph-5ph---------5ph-4ph---|
|-------------------------------------------------------------------|
|-3ph-6ph---------3ph-5ph---------3ph-6ph---------3ph-5ph-----------|

|-------------------------------------------------------------------|
|-------------------------------------------------------------------|
|---------10ph-9ph---------9ph-8ph---------8ph-7ph---------7ph-6ph--|
|-------------------------------------------------------------------|
|-5ph-8ph----------5ph-7ph---------5ph-8ph---------5ph-7ph----------|
|-------------------------------------------------------------------|

|-------------------------------------------------------------------|
|-------------------777----777-10-----------------------------------|
|-------------555-------8---------888-11-555-8----------------------|
|-------444-------7----------------------------777-10---------------|
|-333-------6-------------------------------------------------------|
|-----5-------------------------------------------------------------|
  ... . ... .
|-------------------------------------------------------------------|
|-------------------777----777-10-----------------------------------|
|-------------555-------8---------888-11-555-8----------------------|
|-------444-------7----------------------------777-10---------------|
|-333-------6-------------------------------------------------------|
|-----5-------------------------------------------------------------|
  ... . ... .
|-------------------------------------------------------------------|
|-------------------999----999-12-----------------------------------|
|-------------777-------10--------101010-13-777-10------------------|
|-------666-------9--------------------------------999-12-----------|
|-555-------8-------------------------------------------------------|
|-----7-------------------------------------------------------------|
  ... . ... .
|-------------------------------------------------------------------|
|-------------------999----999-12-----------------------------------|
|-------------777-------10--------101010-13-777-10------------------|
|-------666-------9--------------------------------999-12-----------|
|-555-------8-------------------------------------------------------|
|-----7-------------------------------------------------------------|
  ... . ... .
|---6---5---3h5---6---5---3-3h5---8---7---5h7---8---7---5-5h7-------|
|-3---3---3-----3---3---3-------5---5---5-----5---5---5-------------|
|-------------------------------------------------------------------|
|-------------------------------------------------------------------|
|-------------------------------------------------------------------|
|-------------------------------------------------------------------|

|--10---9---7h9---10---9---7-7h9---12---11---9h11---12---11---9-9h11|
|7----7---7-----7----7---7-------9----9----9------9----9----9-------|
|-------------------------------------------------------------------|
|-------------------------------------------------------------------|
|-------------------------------------------------------------------|
|-------------------------------------------------------------------|

|----15----14----12h14----15----14----12-12h14----------------------|
|-12----12----12-------12----12----12-------------------------------|
|-------------------------------------------------------------------|
|-------------------------------------------------------------------|
|-------------------------------------------------------------------|
|-------------------------------------------------------------------|

|----15----14----12h14----15----14----12-12h14----------------------|
|-12----12----12-------12----12----12-------------------------------|
|-------------------------------------------------------------------|
|-------------------------------------------------------------------|
|-------------------------------------------------------------------|
|-------------------------------------------------------------------|

|---6---5---3h5---6---5---3-3h5---8---7---5h7---8---7---5-5h7-------|
|-3---3---3-----3---3---3-------5---5---5-----5---5---5-------------|
|-------------------------------------------------------------------|
|-------------------------------------------------------------------|
|-------------------------------------------------------------------|
|-------------------------------------------------------------------|

|---8---7---5h7---8---7---5-5h7-------------------------------------|
|-5---5---5-----5---5---5-------------------------------------------|
|-------------------------------------------------------------------|
|-------------------------------------------------------------------|
|-------------------------------------------------------------------|
|-------------------------------------------------------------------|

Anyone know what scale or mode that solo could be??

END

  Visit MetalTabs.com for more metal tablature

bottom separator

Contact Us | Privacy Policy | Disclaimer | Legal Notice
Copyright © 2001-2014 MetalTabs.com. All Rights Reserved.