top separator

Home

Forum

What's New

Submit a Tab

FAQ

Links

Contact Us

Link to Us

MetalTabs.com logo

Bands

0-9

A

B

C

D

E

F

G

H

I

J

K

L

M

N

O

P

Q

R

S

T

U

V

W

X

Y

Z

Search

What

Where
 

Inquisition (CO) - "Invoking the Majestic Throne of Satan" Guitar Tab

Plain Text Version
More Inquisition (CO) Tabs

Hits: 3547
Rated: 3.00 out of 5 (2 votes)
Updated: 2004-12-17 06:16:29

 

By:

nyanchuk

sendpm.gif

email.gif

Important note
We did our best to reach Inquisition (CO) and ask for their permission to publish this tab. Unfortunately they did not respond to our requests or we could not find a way to contact them. This tab is available online until Inquisition (CO) tells us to take it down.


#----------------------------------PLEASE NOTE---------------------------------#
#This file is the author's own work and represents their interpretation of the #
#song. You may only use this file for private study, scholarship, or research. #
#Unless specified otherwise, this is NOT an official tab from the band members.#
#------------------------------------------------------------------------------#

  Visit MetalTabs.com for more metal tablature
  
Band:  Inquisition
Album: Invoking The Majestic Throne Of Satan
Song:  Invoking The Majestic Throne Of Satan

Copyright (c)  War Hammer Records (2002)

Transcribed By: nyanchuk
Email:          uklearpower@hotmail.com


Tunning D G C F A D

You are now my living altar...

Riff A:                                                             x4
|-----0---------------0---------------0---------------0------------|
|---0---0-----0-----0---0-----0-----0---0-----0-----0---0----------|
|-----------2---2-----------2---2-----------2---2------------------|
|-2-------2-------2-------2-------2-------2-------2-------5-5-7-7--|
|-2-------2-------2-------2-------2-------2-------2-------3-5-5-7--|
|-0-------0-------0-------0-------0-------0-------0-------3-3-5-5--|

play Riff A x4


Riff B:                                                             x2
|------------------------------------------------------------------|
|------------------------------------------------------------------|
|------------------------------------------------------------------|
|-5-5-3-3-7-7-2-2-5-5-3-3-7-7-2-2-5-5-3-3-7-7-2-2-5-5-3-3-7-7-2-2--|
|-3-5-3-1-5-7-2-2-3-5-3-1-5-7-2-2-3-5-3-1-5-7-2-2-3-5-3-1-5-7-2-2--|
|-3-3-1-1-5-5-0-0-3-3-1-1-5-5-0-0-3-3-1-1-5-5-0-0-3-3-1-1-5-5-0-0--|

play Riff B x1

Riff B truncated:
|-------------------------------------------------------------
|-------------------------------------------------------------
|-------------------------------------------------------------
|-5-5-3-3-7-7-2-2-5-5-3-3-7-7-2-2-5-5-3-3-7-7-2-2-5-5-3-3-7-7-
|-3-5-3-1-5-7-2-2-3-5-3-1-5-7-2-2-3-5-3-1-5-7-2-2-3-5-3-1-5-7-
|-3-3-1-1-5-5-0-0-3-3-1-1-5-5-0-0-3-3-1-1-5-5-0-0-3-3-1-1-5-5-

play Riff A x4
play Riff A x4
play Riff B x2
play Riff B x1
play Riff B truncated

Riff C:                                                             x4
|------------------------------------------------------------------|
|------------------------------------------------------------------|
|-------------------------------------------------5-5-4------------|
|-2-2-2-2-2-2-2-2-2-2-2-2-2-2-2-2-2-2-2-2-2-2-2-2-3-5-2-5-3-3-5-5--|
|-2-2-2-2-2-2-2-2-2-2-2-2-2-2-2-2-2-2-2-2-2-2-2-2-3-3---3-1-1-3-5--|
|-0-0-0-0-0-0-0-0-0-0-0-0-0-0-0-0-0-0-0-0-0-0-0-0---------1-1-3-3--|


Riff D:                                                             x4
|------------------------------------------------------------------|
|------------------------------------------------------------------|
|-----0-------0-------0-------0-------0-------0-------0---5/7-7/9--|
|-2-2-----2-4-----2-2-----2-4---4-2-2-----2-4---4-2-2-----5/7-7/9--|
|-2-------2-------2-------2-------2-------2-------2-------3/5-5/7--|
|-0-------0-------0-------0-------0-------0-------0----------------|

play Riff D x4
play Riff C x4
play Riff D x4

play Riff D x2
fadeout Riff D x2



The End

  Visit MetalTabs.com for more metal tablature

bottom separator

Contact Us | Privacy Policy | Disclaimer | Legal Notice
Copyright © 2001-2014 MetalTabs.com. All Rights Reserved.