top separator

Home

Forum

What's New

Submit a Tab

FAQ

Links

Contact Us

Link to Us

MetalTabs.com logo

Bands

0-9

A

B

C

D

E

F

G

H

I

J

K

L

M

N

O

P

Q

R

S

T

U

V

W

X

Y

Z

Search

What

Where
 

Inquisition (CO) - "Hail the King of all Heathens" Guitar Tab

Plain Text Version
More Inquisition (CO) Tabs

Hits: 4334
Rated: 4.33 out of 5 (3 votes)
Updated: 2004-12-17 06:16:13

 

By:

nyanchuk

sendpm.gif

email.gif

Important note
We did our best to reach Inquisition (CO) and ask for their permission to publish this tab. Unfortunately they did not respond to our requests or we could not find a way to contact them. This tab is available online until Inquisition (CO) tells us to take it down.


#----------------------------------PLEASE NOTE---------------------------------#
#This file is the author's own work and represents their interpretation of the #
#song. You may only use this file for private study, scholarship, or research. #
#Unless specified otherwise, this is NOT an official tab from the band members.#
#------------------------------------------------------------------------------#

  Visit MetalTabs.com for more metal tablature
  
Band:  Inquisition
Album: Invoking The Majestic Throne Of Satan
Song:  Hail The King of All Heathens

Copyright (c)  War Hammer Records (2002)

Transcribed By: nyanchuk
Email:          uklearpower@hotmail.com


**The hammering/tapping part in lead A is most likely wrong
**
**The first part of lead B is correct note-wise,
**but it sounds like tapping which i am
**having trouble figuring out how to play
**
**correction would be appreciated


Tunning D G C F A D

Riff A:                                       x4
|---333---333---666---333---333---333--------|
|---444---333---333---444---444---333--------|
|-5-----5-----5-----5-----5-----5-----5-3-7--|
|-5-----5-----5-----5-----5-----5-----5-3-7--|
|-3-----3-----3-----3-----3-----3-----3-1-5--|
|--------------------------------------------|

Riff B:                                                             x1
|------------------------------------------------------------------|
|------------------------------------------------------------------|
|-5555555555553---5555555555553---5555555555553---5555555555553----|
|-5553555355533-3-5553555355533-3-5553555355533-3-5553555355533-3--|
|-3333333333331-3-3333333333331-3-3333333333331-3-3333333333331-3--|
|---------------1---------------1---------------1---------------1--|

play Riff B x2

Riff C:                                           x2
|------------------------------------------------|
|------------------------------------------------|
|-5--0--5--0--5--0-3--0--5--0--5--0--5--0-3--0---|
|-5-5---5-5---5-5--3-3---5-5---5-5---5-5--3-3----|
|-3-----3-----3----1-----3-----3-----3----1------|
|------------------------------------------------|

play Riff B x4
play Riff C x4


Riff D:                                            x2
  Bbmaj Abmaj Cmin  Bbmaj Bbmaj Abmaj
|----3-----1-----5-----3-----3-----1---------------|
|--------------------------------------------------|
|-5-5---3-3---7-7---5-5---5-5---3-3----------------|
|-5-----3-----7-----5-----5-----3-----3-323-3-323--|
|-3-----1-----5-----3-----3-----1-----3-323-3-323--|
|-------------------------------------1-101-1-101--|
                                        pm    pm


play Riff D x8 under Lead A (extends a bit into the next x2 actually)
play Riff D x2

play Riff C x4
play Riff C x7 under Lead B (fadeout on the last repetition of Riff C)


THE END


Lead A:
                                                    x2
|--------------------------------------------------|
|--------------------------------------------------|
|/5~----3~----7-bh-r5~---5~----3~----2323~2323~232-|
|--------------------------------------------------|
|--------------------------------------------------|
|--------------------------------------------------|

						    x2
|--------------------------------------------------|
|--------------------------------------------------|
|/5-78753-575-7-810875-875-5-7875-3-5753~--3-3/5~--|
|--------------------------------------------------|
|--------------------------------------------------|
|--------------------------------------------------|

                                                    x2
|--------------------------------------------------|
|-5-68656-5-3-5-6865-6/8/10-5-68656-5-3-1--1tr3-1~-|
|--------------------------------------------------|
|--------------------------------------------------|
|--------------------------------------------------|
|--------------------------------------------------|


 -----------------------------------------------------------------
 -----------------------------------------------------------------
 -10-5-55-12-5-55-10-5-55-12-5-5-5-10-5-55-12-5-55-3~--3-3/5~-----
 -----------------------------------------------------------------
 -----------------------------------------------------------------
 -----------------------------------------------------------------

                     x4                      x2                      x2
|-------------------|   |-------------------|   |--------------------|
|-------------------|   |-------------------|   |--------------------|
|-5h7p5-3h5p3-2h3p3-|   |-7h9p5-5h7p3-3h5p2-|   |-9h10p7-5h7p3-3h5p2-|
|-------------------|   |-------------------|   |--------------------|
|-------------------|   |-------------------|   |--------------------|
|-------------------|   |-------------------|   |--------------------|


 --------------------------------------------------
 --------------------------------------------------
 -3~----3-3/5--------------------------------------
 --------------------------------------------------
 --------------------------------------------------
 --------------------------------------------------




Lead B:

                                                    x2
|--------------------------------------------------|
|--8--6--------8--6--------8--6--------8--6--------|
|---55-55855755-55-55355355-55-55855755-55-553555~-|
|--------------------------------------------------|
|--------------------------------------------------|
|--------------------------------------------------|

                           x4
|-------------------------|
|----6-----8-----6--------|
|-578-87578-87578-877~35--|
|-------------------------|
|-------------------------|
|-------------------------|

                                                   x2
|--------------------------------------------------|
|--8--6--------8--6--------8--6--------8--6--------|
|---55-55855755-55-55355355-55-55855755-55-553555~-|
|--------------------------------------------------|
|--------------------------------------------------|
|--------------------------------------------------|

                       fadeout x2
|-------------------------|
|----6-----8-----6--------|
|-578-87578-87578-877~35--|
|-------------------------|
|-------------------------|
|-------------------------|




End of Tab

  Visit MetalTabs.com for more metal tablature

bottom separator

Contact Us | Privacy Policy | Disclaimer | Legal Notice
Copyright © 2001-2014 MetalTabs.com. All Rights Reserved.