top separator

Home

Forum

What's New

Submit a Tab

FAQ

Links

Contact Us

Link to Us

MuSpy.com

MetalTabs.com logo

Bands

0-9

A

B

C

D

E

F

G

H

I

J

K

L

M

N

O

P

Q

R

S

T

U

V

W

X

Y

Z

Search

What

Where
 

Suffocation - "Surgery of Impalement" Guitar Tab

Plain Text Version
More Suffocation Tabs

Hits: 10213
Rated: 4.64 out of 5 (11 votes)
Updated: 2004-12-17 05:48:23

 

By:

Stachio

sendpm.gif

email.gif

Important note
This tab is available online because we obtained explicit permission from Suffocation or their label.


#----------------------------------PLEASE NOTE---------------------------------#
#This file is the author's own work and represents their interpretation of the #
#song. You may only use this file for private study, scholarship, or research. #
#Unless specified otherwise, this is NOT an official tab from the band members.#
#------------------------------------------------------------------------------#

  Visit MetalTabs.com for more metal tablature
  
SURGERY OF IMPALEMENT
                           As recorded by Suffocation
                       (From the 2004 Album SOULS TO DENY)

Words by Frank Mullen Music by Suffocation
Arranged by Suffocation
Transcribed by Gael Pirlot (GaelPirlot@gmail.com)

Please leave me feedback.  E-mail me with any questions or comments.

Gtr I (Db Gb B E Ab Db) - 'Terrance Hobbs'
Gtr II (Db Gb B E Ab Db) - 'Guy Marchais'
Gtr III (Db Gb B E Ab Db) - 'Lead'

 Intro
  Q=210
 3/4
  Gtr I
  PM--------------------------------------------------|
|-------------|-------------|-------------|-------------|
|-------------|-------------|-------------|-------------|
|-------------|-------------|-------------|-------------|
|-----5-4-----|-------------|-------------|-------------|
|---------5-4-|-----4-3-----|-----3-2-----|-----2-1-----|
|-3-6---------|-2-5-----4-3-|-1-4-----3-2-|-0-3-----2-1-|
|
| Gtr II
| PM--------------------------------------------------|
|-------------|-------------|-------------|-------------|
|-------------|-------------|-------------|-------------|
|-------------|-------------|-------------|-------------|
|-----8-7-----|-------------|-------------|-------------|
|---------8-7-|-----7-6-----|-----6-5-----|-----5-4-----|
|-6-9---------|-5-8-----7-6-|-4-7-----6-5-|-3-6-----5-4-|


 Pre-Verse
  Gtr I
  PM----------------------------------------------------|   PM
|---------------|---------------|---------------|----------------|
|---------------|---------------|---------------|----------------|
|---------------|---------------|---------------|----------------|
|---------------|---------------|---------------|---------5---4--|
|-------3-4-5-6-|-7-7-7-6-5-6-3-|-------3-4-5-6-|-6-6-6----------|
|-0-0-0-1-2-3-4-|-5-5-5-4-3-4-1-|-0-0-0-1-2-3-4-|-4-4-4-3---2----|
|
| Gtr II
|                                                       PM  PM
|---------------|---------------|---------------|----------------|
|---------------|---------------|---------------|----------------|
|---------------|---------------|---------------|----------------|
|---------------|---------------|---------------|---------5---4--|
|-2-------------|---------------|---------------|----------------|
|-0-------------|---------------|---------------|-------3---2----|


 Verse A
  Gtrs I, II
  PM----------------------------------------------------------|
|---------------|---------------|---------------|----------------|
|---------------|---------------|---------------|----------------|
|---------------|---------------|---------------|----------------|
|---------------|---------------|---------------|----------------|
|-------3-4-5-6-|-7-7-7-6-5-6-3-|-7-7-7-6-5-6-3-|-7-7-7-6-5-6-3--|
|-0-0-0-1-2-3-4-|-5-5-5-4-3-4-1-|-5-5-5-4-3-4-1-|-5-5-5-4-3-4-1--|


  Gtrs I, II
  PM----------------------------------------------------|   PM
|---------------|---------------|---------------|----------------|
|---------------|---------------|---------------|----------------|
|---------------|---------------|---------------|----------------|
|---------------|---------------|---------------|---------5---4--|
|-------3-4-5-6-|-7-7-7-6-5-6-3-|-------3-4-5-6-|-6-6-6----------|
|-0-0-0-1-2-3-4-|-5-5-5-4-3-4-1-|-0-0-0-1-2-3-4-|-4-4-4-3---2----|


  Gtrs I, II
  PM------------------------------|   PM            PM  PM  PM|
|---------------|---------------|-----------------|--------------|
|---------------|---------------|-----------------|--------------|
|---------------|---------------|-----------------|--------------|
|---------------|---------------|---5---4-3h4p3-0-|--------------|
|-------3-4-5-6-|-7-7-7-6-5-6-3-|-----------------|---2---4------|
|-0-0-0-1-2-3-4-|-5-5-5-4-3-4-1-|-3---2-----------|-2---2---5-4--|


  Gtrs I, II

  PM----------------------------------------------------|   PM
|---------------|---------------|---------------|----------------|
|---------------|---------------|---------------|----------------|
|---------------|---------------|---------------|----------------|
|---------------|---------------|---------------|---------5---4--|
|-------3-4-5-6-|-7-7-7-6-5-6-3-|-------3-4-5-6-|-6-6-6----------|
|-0-0-0-1-2-3-4-|-5-5-5-4-3-4-1-|-0-0-0-1-2-3-4-|-4-4-4-3---2----|


  Gtrs I, II
  PM----------------------------------------------------------|
|---------------|---------------|---------------|----------------|
|---------------|---------------|---------------|----------------|
|---------------|---------------|---------------|----------------|
|---------------|---------------|---------------|----------------|
|-------3-4-5-6-|-7-7-7-6-5-6-3-|-7-7-7-6-5-6-3-|-7-7-7-6-5-6-3--|
|-0-0-0-1-2-3-4-|-5-5-5-4-3-4-1-|-5-5-5-4-3-4-1-|-5-5-5-4-3-4-1--|


  Gtrs I, II
  PM----------------------------------------------------|   PM
|---------------|---------------|---------------|----------------|
|---------------|---------------|---------------|----------------|
|---------------|---------------|---------------|----------------|
|---------------|---------------|---------------|---------5---4--|
|-------3-4-5-6-|-7-7-7-6-5-6-3-|-------3-4-5-6-|-6-6-6----------|
|-0-0-0-1-2-3-4-|-5-5-5-4-3-4-1-|-0-0-0-1-2-3-4-|-4-4-4-3---2----|


  Gtr I
  PM--------------------------------------------------|
|-------------|-------------|-------------|--------------|
|-------------|-------------|-------------|--------------|
|-------------|-------------|-------------|--------------|
|-----5-4-----|-------------|-------------|--------------|
|---------5-4-|-----4-3-----|-----3-2-----|-----2-1------|
|-3-6---------|-2-5-----4-3-|-1-4-----3-2-|-0-3-----2-1--|
|
| Gtr II
| PM--------------------------------------------------|
|-------------|-------------|-------------|--------------|
|-------------|-------------|-------------|--------------|
|-------------|-------------|-------------|--------------|
|-----8-7-----|-------------|-------------|--------------|
|---------8-7-|-----7-6-----|-----6-5-----|-----5-4------|
|-6-9---------|-5-8-----7-6-|-4-7-----6-5-|-3-6-----5-4--|


 Verse B
  Q=230
                             5/4
  Gtr I
  PM---------------------|
|---------|-------|---------|-------------------------------------------|
|---------|-------|---------|-------------------------------------------|
|---------|-------|---------|-------------------------------------------|
|-3----4--|-------|-3----4--|-------------------------5-5-5-5-4-4-4-4---|
|-3----4--|-------|-3----4--|-5-5-5-5-4-4-4-4-2-2-2-2-------------------|
|-1----2--|-------|-1----2--|-------------------------------------------|
|
| Gtr II
| PM---------------------|
|---------|-------|---------|-------------------------------------------|
|---------|-------|---------|-------------------------------------------|
|---------|-------|---------|-------------------------3-3-3-3-2-2-2-2---|
|---------|-------|---------|-3-3-3-3-2-2-2-2-0-0-0-0-------------------|
|-3----4--|-------|-3----4--|-------------------------------------------|
|-1----2--|-------|-1----2--|-------------------------------------------|


   3/4          5/4
    Gtr I
    PM---------------------------------|
||-------------|-----------------------------------------|
||o------------|-----------------------------------------|
||-------------|-----------------------------------------|
||--7-6-7-6-4--|-----------------------------------------|
||o-7-6-7-6-4--|-------------------------3-3-3-3-2-2-2-2-|
||--5-4-5-4-2--|-2-2-2-2-5-5-5-5-4-4-4-4-----------------|
|
|   Gtr II
|   PM---------------------------------|
||-------------|-----------------------------------------|
||o------------|-----------------------------------------|
||-------------|-----------------------------------------|
||-------------|-----------------------------------------|
||o-7-6-7-6-4--|-------------------------3-3-3-3-2-2-2-2-|
||--5-4-5-4-2--|-2-2-2-2-5-5-5-5-4-4-4-4-----------------|


 3/4          5/4
  PM---------------------------------|   PM  PM
|------------|---------------------------------|
|------------|---------------------------------|
|------------|---------------------------------|
|-7-6-7-6-4--|-------------------------3---4---|
|-7-6-7-6-4--|---------------------------------|
|-5-4-5-4-2--|-2-2-2-2-5-5-5-5-4-4-4-4---1---2-|
|
| PM---------------------------------|   PM  PM
|------------|---------------------------------|
|------------|---------------------------------|
|------------|---------------------------------|
|------------|-------------------------3---4---|
|-7-6-7-6-4--|---------------------------------|
|-5-4-5-4-2--|-2-2-2-2-5-5-5-5-4-4-4-4---1---2-|


 3/4          5/4
  Gtrs I, II
  PM---------------------------------|
|------------|-----------------------------------------|
|------------|-----------------------------------------|
|------------|-----------------------------------------|
|------------|-----------------------------------------|
|-7-6-7-6-4--|-------------------------3-3-3-3-2-2-2-2-|
|-5-4-5-4-2--|-2-2-2-2-5-5-5-5-4-4-4-4-----------------|


 4/4
|---------------------------------|-------------------------------------||
|---------------------------------|------------------------------------o||
|---------------------------------|-----------------5-5-5-5-4-4-4-4-----||
|-----------------4-4-4-4-3-3-3-3-|-7-7-7-7-6-6-6-6---------------------||
|-5-5-5-5-4-4-4-4-----------------|------------------------------------o||
|---------------------------------|-------------------------------------||


  Gtrs I, II
  PM----------------|
|-----------------|----------|
|-----------------|----------|
|-----------------|----------|
|-----------------|-3--------|
|-7-6-7-6-7-6-7-6-|-3--------|
|-5-4-5-4-5-4-5-4-|-1--------|


                                                    PM-|
|---------------------------------|-----------------------|
|---------------------------------|-----------------------|
|---------------------------------|-----------------------|
|-----------------4-4-4-4-3-3-3-3-|-7-7-7-7-6-6-6-6-7--5--|
|-5-5-5-5-4-4-4-4-----------------|-----------------7--5--|
|---------------------------------|-----------------5--3--|


   3/4          5/4
    Gtr I
    PM---------------------------------|
||-------------|-----------------------------------------|
||o------------|-----------------------------------------|
||-------------|-----------------------------------------|
||--7-6-7-6-4--|-----------------------------------------|
||o-7-6-7-6-4--|-------------------------3-3-3-3-2-2-2-2-|
||--5-4-5-4-2--|-2-2-2-2-5-5-5-5-4-4-4-4-----------------|
|
|   Gtr II
|   PM---------------------------------|
||-------------|-----------------------------------------|
||o------------|-----------------------------------------|
||-------------|-----------------------------------------|
||-------------|-----------------------------------------|
||o-7-6-7-6-4--|-------------------------3-3-3-3-2-2-2-2-|
||--5-4-5-4-2--|-2-2-2-2-5-5-5-5-4-4-4-4-----------------|


 3/4          5/4
  PM---------------------------------|   PM  PM
|------------|---------------------------------|
|------------|---------------------------------|
|------------|---------------------------------|
|-7-6-7-6-4--|-------------------------3---4---|
|-7-6-7-6-4--|---------------------------------|
|-5-4-5-4-2--|-2-2-2-2-5-5-5-5-4-4-4-4---1---2-|
|
| PM---------------------------------|   PM  PM
|------------|---------------------------------|
|------------|---------------------------------|
|------------|---------------------------------|
|------------|-------------------------3---4---|
|-7-6-7-6-4--|---------------------------------|
|-5-4-5-4-2--|-2-2-2-2-5-5-5-5-4-4-4-4---1---2-|


 3/4          5/4
  Gtrs I, II
  PM---------------------------------|
|------------|-----------------------------------------|
|------------|-----------------------------------------|
|------------|-----------------------------------------|
|------------|-----------------------------------------|
|-7-6-7-6-4--|-------------------------3-3-3-3-2-2-2-2-|
|-5-4-5-4-2--|-2-2-2-2-5-5-5-5-4-4-4-4-----------------|


 4/4
|---------------------------------|-------------------------------------||
|---------------------------------|------------------------------------o||
|---------------------------------|-----------------5-5-5-5-4-4-4-4-----||
|-----------------4-4-4-4-3-3-3-3-|-7-7-7-7-6-6-6-6---------------------||
|-5-5-5-5-4-4-4-4-----------------|------------------------------------o||
|---------------------------------|-------------------------------------||


  Q=210
 3/4
  Gtr I
  PM--------------------------------------------------|
|-------------|-------------|-------------|-------------|
|-------------|-------------|-------------|-------------|
|-------------|-------------|-------------|-------------|
|-----5-4-----|-------------|-------------|-------------|
|---------5-4-|-----4-3-----|-----3-2-----|-----2-1-----|
|-3-6---------|-2-5-----4-3-|-1-4-----3-2-|-0-3-----2-1-|
|
| Gtr II
| PM--------------------------------------------------|
|-------------|-------------|-------------|-------------|
|-------------|-------------|-------------|-------------|
|-------------|-------------|-------------|-------------|
|-----8-7-----|-------------|-------------|-------------|
|---------8-7-|-----7-6-----|-----6-5-----|-----5-4-----|
|-6-9---------|-5-8-----7-6-|-4-7-----6-5-|-3-6-----5-4-|


 Guitar Solo
  Gtr I
  PM----------------------------------|                                   PM|
|---------------|---------------|-----------------------|----------------------|
|---------------|---------------|-----------------------|----------------------|
|---------------|---------------|-----------------------|----------------------|
|---------------|---------------|-----------------------|----------------------|
|-3-3-3-3-3-3-3-|-3-3-3-3-3-3-3-|-3-3-3-3-3-3-3-4-4-4-4-|-6-6-6-6-6-6-6-6-4-3--|
|-1-1-1-1-1-1-1-|-1-1-1-1-1-1-1-|-1-1-1-----------------|----------------------|
|
| Gtr II
|                                                                         PM|
|---------------|---------------|-----------------------|----------------------|
|---------------|---------------|-----------------------|----------------------|
|---------------|---------------|-----------------------|----------------------|
|-3-------------|---------------|-----------------------|----------------------|
|-3-------------|---------------|-------3-3-3-3-4-4-4-4-|-6-6-6-6-6-6-6-6-4-3--|
|-1-------------|---------------|-----------------------|----------------------|


  Gtrs I, II
   PM-----------------------------|
|-----------------------|-------------------------------|
|-----------------------|-------------------------------|
|-----------------------|-------------------------------|
|-----------------------|-------------------------------|
|--3-3----3--3--3--3--3-|--3-3----3--3-3--3-3--4-4--4-4-|
|--1-1----1--1--1--1--1-|--1-1----1---------------------|
|
| Gtr III
|------17------17----17-|------17--------17--------17---|
|-15--------15----13----|-12------------------12--------|
|-----------------------|-----------13------------------|
|-----------------------|-------------------------------|
|-----------------------|-------------------------------|
|-----------------------|-------------------------------|


                       PM----------------------------|
|---------------------------|------------------------------|
|---------------------------|------------------------------|
|---------------------------|------------------------------|
|---------------------------|------------------------------|
|--6-6--6-6--6-6--6-6--4--3-|----------------------4--3----|
|---------------------------|--2-2--2-2--2-2--2-2----------|
|
|------17--------17------17-|------17--------17------------|
|-13--------15--------15----|-13--------15--------13-15-13-|
|---------------------------|------------------------------|
|---------------------------|------------------------------|
|---------------------------|------------------------------|
|---------------------------|------------------------------|


  Gtrs I, II
   PM---------------------------------------------
|------------------------|-----------------------|
|------------------------|-----------------------|
|------------------------|-----------------------|
|------------------------|-----------------------|
|--3-3-3-3-3--3-----3----|--3-3-3-3-3--3----3----|
|--1-1-1-1-1--1-----1----|--1-1-1-1-1--1----1----|
|
| Gtr III
|  ~~                       ~~
|------------------------|-----------------------|
|-17---------15h17-15-13-|-15---------13h15---12-|
|------------------------|-----------------------|
|------------------------|-----------------------|
|------------------------|-----------------------|
|------------------------|-----------------------|


 ------|                                         PM|
|---------------------------|--------------------------|
|---------------------------|--------------------------|
|---------------------------|--------------------------|
|---------------------------|--------------------------|
|--3-3-3--3-3-3-3--4-4--4-4-|--6-6--6-6-6-6--6-6-4-3---|
|--1-1-1--------------------|--------------------------|
|
|                                            ~~
|--------15-----------------|--------------------------|
|-13--------------13p==12---|-15S==17-------13---------|
|---------------------------|--------------------------|
|---------------------------|--------------------------|
|---------------------------|--------------------------|
|---------------------------|--------------------------|


  Gtrs I, II
   PM---------------------------|
|------------------------|-----------------------------------|
|------------------------|-----------------------------------|
|------------------------|-----------------------------------|
|------------------------|-----------------------------------|
|--3-3-3-3-3--3-----3----|--3-3-3-----3--3--3--3--4--4--4--4-|
|--1-1-1-1-1--1-----1----|--1-1-1----------------------------|
|
| Gtr III
|------------------------|-----------------------------------|
|------------------------|-----------------------------------|
|-16---------16h17-16h17-|-14-----------14-16-17-16-14-------|
|------------------------|--------15-16----------------16-15-|
|------------------------|-----------------------------------|
|------------------------|-----------------------------------|


                         PM|
|-----------------------------------|-----------------------------------------|
|-----------------------------------|-----------------------------------------|
|-----------------------------------|-----------------------------------------|
|-----------------------------------|-----------------------------------------|
|--6--6--6--6--6--6-6-6--4--3-------|-----------------------------------------|
|-----------------------------------|--0----0-0-0-0-0---0-----0-0-0---0---0---|
|
|-----------------------------------|-----------------------------------------|
|-----------------------------------|-----------------------------------------|
|----14-16----14-16-----------16h17-|-----------------------------------------|
|-16-------15-----------15-14-------|-15b17r==========(15)b17r======(15)-14---|
|-----------------------------------|-----------------------------------------|
|-----------------------------------|-----------------------------------------|


  Gtrs I, II
   PM-------------------------------------------
|---------------------------|------------------|
|---------------------------|------------------|
|---------------------------|------------------|
|---------------------------|------------------|
|--3----3-3---3-----3--3--3-|--3-3-3--3-3--3-3-|
|--1----1-1---1-----1--1--1-|--1-1-1--1-1--1-1-|
|
| Gtr III
|---------------------------|------------------|
|---------------------------|------------------|
|---------------------------|------------------|
|-14b16r====(14)b16r==14-12-|-14----------12---|
|---------------------------|--------15--------|
|---------------------------|------------------|


 ------|                                             PM-|
|--------------------------------|-------------------------|
|--------------------------------|-------------------------|
|--------------------------------|-------------------------|
|--------------------------------|-------------------------|
|--3-3-3--3-3----3----3--4-4-4-4-|--6-6-6-6-6-6-6-6--4--3--|
|--1-1-1-------------------------|-------------------------|
|
|                        ~~
|--------------------------------|-------------------------|
|--------------------------------|-------------------------|
|--------------------------------|-------------------------|
|--------14--------14------------|-------------------------|
|-14----------14-----------------|-12---------------14\----|
|-----------------------15-------|-------------------------|


  Gtrs I, II
   PM-----------------------------|
|-----------------------|-------------------------------|
|-----------------------|-------------------------------|
|-----------------------|-------------------------------|
|-----------------------|-------------------------------|
|--3-3----3--3--3--3--3-|--3-3----3--3-3--3-3--4-4--4-4-|
|--1-1----1--1--1--1--1-|--1-1----1---------------------|
|
| Gtr III
|  PM----------------------------------------------|
|-----------------------|-------------------------------|
|-----------------------|-------------------------------|
|-----------------------|-------------------------------|
|-----------------------|-------------------------------|
|-12---15---12-12-15-12-|-14---17---14---14---17---14---|
|-----------------------|-------------------------------|


                              PM------------------------------------|
|----------------------------------|--------------------------------------|
|----------------------------------|--------------------------------------|
|----------------------------------|--------------------------------------|
|----------------------------------|--------------------------------------|
|--6----6-6-6---6-----6-6-6---4--3-|-----------------------------4--3-----|
|----------------------------------|--2----2-2-2---2-----2-2-2------------|
|
|----------------------------------|--------------------------------------|
|----------------------------------|--------------------------------------|
|----------------------------------|----------------------------------14S=|
|-14b16r======(14)b16r======(14)---|-14b16r======(14)b16r======(14)-------|
|----------------------------------|--------------------------------------|
|----------------------------------|--------------------------------------|


  Gtrs I, II
   PM-----------------------------------------------------------------
|-----------------------------------|--------------------------------|
|-----------------------------------|--------------------------------|
|-----------------------------------|--------------------------------|
|-----------------------------------|--------------------------------|
|--3----3-3---3-----3--3----3-------|--3-3-3--3-----3-----3-----3----|
|--1----1-1---1-----1--1----1-------|--1-1-1--1-----1-----1-----1----|
|
| Gtr III
|-----------------------------------|--------------------------------|
|-----------------------------------|--------14-12-14-12-11tr12------|
|-17b19r====(17)b19r==16s17---16-14-|-----------------------------13-|
|-----------------------------------|-12-----------------------------|
|-----------------------------------|--------------------------------|
|-----------------------------------|--------------------------------|


 -------|                                        PM|
|---------------------------|---------------------------|
|---------------------------|---------------------------|
|---------------------------|---------------------------|
|---------------------------|---------------------------|
|--3--3-3-3-3-3-3---4-4-4-4-|--6-6-6-6--6-6-6-6--4--3---|
|--1--1-1-------------------|---------------------------|
|
|---------------------------|---------------------------|
|-----------------/19-------|-17------------------------|
|---------------------------|----------19-------18-19---|
|-14------------------------|---------------------------|
|---------------------------|---------------------------|
|---------------------------|---------------------------|


  Gtrs I, II
   PM-------------------------|
|---------------------|---------------------------|
|---------------------|---------------------------|
|---------------------|---------------------------|
|---------------------|---------------------------|
|--3-3----3---3-3-3-3-|--3-3--3--3--3-3-3-4-4-4-4-|
|--1-1----1---1-1-1-1-|--1-1--1-------------------|
|
| Gtr III
|-18--------/22-------|-21------21\---------------|
|------17-------------|---------------------------|
|---------------------|---------------------------|
|---------------------|---------------------------|
|---------------------|---------------------------|
|---------------------|---------------------------|


  Gtrs I, II
|--------------------------------------|
|--------------------------------------|
|--------------------------------------|
|--------------------------------------|
|--6--6--6--6--6--6--6--6--4--4--3--3--|
|--------------------------------------|
|
| Gtr III
|-17-15-13-----------------------------|
|----------17-15-13----------13-15-17--|
|-------------------16-14-16-----------|
|--------------------------------------|
|--------------------------------------|
|--------------------------------------|

                                      4/4
                                        PM
|------------------------------------|--------------------------------|
|------------------------------------|--------------------------------|
|------------------------------------|--------------------------------|
|------------------------------------|--9-----------------------------|
|--7--7--7--7--7--7--7--7--6--6--4-4-|--7-----------------------------|
|------------------------------------|--------------------------------|
|
|-13-17-13---------------------------|-24b26r=(24)b26r=(24)b26r=(24)--|
|----------------------------13-15---|--------------------------------|
|-------------------13-14-16---------|--------------------------------|
|----------11-12-14------------------|--------------------------------|
|------------------------------------|--------------------------------|
|------------------------------------|--------------------------------|


 Pre-Verse
  Q=230
 4/4
  Gtrs I, II
    PM--------|   PM--------|     PM----------------|
|-----------------------------|-----------------------|
|-----------------------------|-----------------------|
|-----------------------------|-----------------------|
|-6-------------6-------------|-7-----------------6-5-|
|-----------------------------|---------------6-7-4-3-|
|---4-4-4-4-4-4---4-4-4-4-4-4-|---5-5-5-5-5-5-4-5-----|


    PM--------|   PM--------|     PM----------------|
|-----------------------------|-----------------------|
|-----------------------------|-----------------------|
|-----------------------------|-----------------------|
|-8-------------8-------------|-7-----------------6-5-|
|-----------------------------|---------------6-7-4-3-|
|---6-6-6-6-6-6---6-6-6-6-6-6-|---5-5-5-5-5-5-4-5-----|


  Gtr I
    PM--------|   PM--------|     PM--------|   PM--------|
|-----------------------------|-----------------------------|
|-----------------------------|-----------------------------|
|-----------------------------|-----------------------------|
|-6-------------6-------------|-5-------------5-------------|
|-----------------------------|-----------------------------|
|---4-4-4-4-4-4---4-4-4-4-4-4-|---3-3-3-3-3-3---3-3-3-3-3-3-|
|
| Gtr II
|   PM--------|   PM--------|     PM--------|   PM--------|
|-----------------------------|-----------------------------|
|-----------------------------|-----------------------------|
|-----------------------------|-----------------------------|
|-6-------------6-------------|-9-------------9-------------|
|-----------------------------|-----------------------------|
|---4-4-4-4-4-4---4-4-4-4-4-4-|---7-7-7-7-7-7---7-7-7-7-7-7-|


    PM--------|   PM--------|     PM----------------|
|-----------------------------|--------------------------|
|-----------------------------|--------------------------|
|-----------------------------|--------------------------|

|-4-------------4-------------|-7-----------------6-5----|
|-----------------------------|---------------6-7-4-3----|
|---2-2-2-2-2-2---2-2-2-2-2-2-|---5-5-5-5-5-5-4-5--------|
|
|   PM--------|   PM--------|                 PM----|
|-----------------------------|--------------------------|
|-----------------------------|--------------------------|
|-----------------------------|--------------------------|
|-8-------------8-------------|-7-----------------6-5----|
|-----------------------------|---------------6-7-4-3----|
|---6-6-6-6-6-6---6-6-6-6-6-6-|---------------4-5--------|


  Gtr I
    PM--------|   PM--------|     PM----------------|
|-----------------------------|-----------------------|
|-----------------------------|-----------------------|
|-----------------------------|-----------------------|
|-6-------------6-------------|-7-----------------6-5-|
|-----------------------------|---------------6-7-4-3-|
|---4-4-4-4-4-4---4-4-4-4-4-4-|---5-5-5-5-5-5-4-5-----|
|
| Gtr II
| PM----------------------------|             PM----|
|-----------------------------|-----------------------|
|-----------------------------|-----------------------|
|-----------------------------|-----------------------|
|-----------------------------|-------------------6-5-|
|-6-------------6-------------|-7-------------6-7-4-3-|
|-4-------------4-------------|-5-------------4-5-----|


    PM--------|   PM--------|     PM----------------|
|-----------------------------|------------------------|
|-----------------------------|------------------------|
|-----------------------------|------------------------|
|-8-------------8-------------|-7-----------------6-5--|
|-----------------------------|---------------6-7-4-3--|
|---6-6-6-6-6-6---6-6-6-6-6-6-|---5-5-5-5-5-5-4-5------|
|
|                                             PM----|
|-----------------------------|------------------------|
|-----------------------------|------------------------|
|-----------------------------|------------------------|
|-----------------------------|-------------------6-5--|
|-8-------------8-------------|-7-------------6-7-4-3--|
|-6-------------6-------------|-5-------------4-5------|


  Gtr I
    PM--------|   PM--------|     PM--------|   PM--------|
|-----------------------------|-----------------------------|
|-----------------------------|-----------------------------|
|-----------------------------|-----------------------------|
|-6-------------6-------------|-5-------------5-------------|
|-----------------------------|-----------------------------|
|---4-4-4-4-4-4---4-4-4-4-4-4-|---3-3-3-3-3-3---3-3-3-3-3-3-|
|
| Gtr II
| PM--------------|               PM--------|   PM--------|
|-----------------------------|-----------------------------|
|-----------------------------|-----------------------------|
|-----------------------------|-----------------------------|
|-----------------------------|-9-------------9-------------|
|-6-------------6-------------|-----------------------------|
|-4-------------4-------------|---7-7-7-7-7-7---7-7-7-7-7-7-|


    PM--------|   PM--------|     PM----------------|
|-----------------------------|--------------------------|
|-----------------------------|--------------------------|
|-----------------------------|--------------------------|
|-4-------------4-------------|-7-----------------6-5----|
|-----------------------------|---------------6-7-4-3----|
|---2-2-2-2-2-2---2-2-2-2-2-2-|---5-5-5-5-5-5-4-5--------|
|
|   PM--------|   PM--------|     PM----------------|
|-----------------------------|--------------------------|
|-----------------------------|--------------------------|
|-----------------------------|--------------------------|
|-8-------------8-------------|-7-----------------6-5----|
|-----------------------------|---------------6-7-4-3----|
|---6-6-6-6-6-6---6-6-6-6-6-6-|---5-5-5-5-5-5-4-5--------|


   Verse C
   4/4
    Gtrs I, II
      PM--------|   PM--------|     PM----------------|
||------------------------------|-----------------------|
||o-----------------------------|-----------------------|
||------------------------------|-----------------------|
||--6-------------6-------------|-7-----------------6-5-|
||o-----------------------------|---------------6-7-4-3-|
||----4-4-4-4-4-4---4-4-4-4-4-4-|---5-5-5-5-5-5-4-5-----|


    PM--------|   PM--------|     PM----------------|
|-----------------------------|----------------------|
|-----------------------------|----------------------|
|-----------------------------|----------------------|
|-8-------------8-------------|-7-----------------6-5|
|-----------------------------|---------------6-7-4-3|
|---6-6-6-6-6-6---6-6-6-6-6-6-|---5-5-5-5-5-5-4-5----|


  Gtr I
    PM--------|   PM--------|     PM--------|   PM--------|
|-----------------------------|-----------------------------|
|-----------------------------|-----------------------------|
|-----------------------------|-----------------------------|
|-6-------------6-------------|-5-------------5-------------|
|-----------------------------|-----------------------------|
|---4-4-4-4-4-4---4-4-4-4-4-4-|---3-3-3-3-3-3---3-3-3-3-3-3-|
|
| Gtr II
|   PM--------|   PM--------|     PM--------|   PM--------|
|-----------------------------|-----------------------------|
|-----------------------------|-----------------------------|
|-----------------------------|-----------------------------|
|-6-------------6-------------|-9-------------9-------------|
|-----------------------------|-----------------------------|
|---4-4-4-4-4-4---4-4-4-4-4-4-|---7-7-7-7-7-7---7-7-7-7-7-7-|


                                1.
    PM--------|   PM--------|     PM----------------|
|-----------------------------|---------------------------||
|-----------------------------|--------------------------o||
|-----------------------------|---------------------------||
|-4-------------4-------------|-7-----------------6-5-----||
|-----------------------------|---------------6-7-4-3----o||
|---2-2-2-2-2-2---2-2-2-2-2-2-|---5-5-5-5-5-5-4-5---------||
|
|   PM--------|   PM--------|     PM----------------|
|-----------------------------|---------------------------||
|-----------------------------|--------------------------o||
|-----------------------------|---------------------------||
|-8-------------8-------------|-7-----------------6-5-----||
|-----------------------------|---------------6-7-4-3----o||
|---6-6-6-6-6-6---6-6-6-6-6-6-|---5-5-5-5-5-5-4-5---------||


   Breakdown
    2.120
    Gtrs I, II
      PM|   PM       PM|   PM|  ~~~    PM|   PM       PM  PM   PM
||---------------|-----------------|--------------|-----------------|
||o--------------|-----------------|--------------|-----------------|
||---------------|-----------------|--------------|---------10------|
||--3-2-3-4---4--|-3-2-3-4-----[8]-|-3-2-3-4---4--|----------9---8--|
||o-3-2-3-4---4--|-3-2-3-4-2-3-----|-3-2-3-4---4--|-3---3----0---7--|
||--1-0-1-2-0-2--|-1-0-1-2-0-3-----|-1-0-1-2-0-2--|-1-0-1-0----0-0--|


                                   1.
  Gtrs I, II
    PM|   PM       PM|   PM|  ~~~    PM|   PM   ~~~  PM--------|
|--------------|-----------------|-----------------|--------------||
|--------------|-----------------|-----------------|-------------o||
|--------------|-----------------|-----------------|--------------||
|-3-2-3-4---4--|-3-2-3-4-----[8]-|-3-2-3-4-----[8]-|-5-4-5-7-8-7--||
|-3-2-3-4---4--|-3-2-3-4-2-3-----|-3-2-3-4-2-3-----|-5-4-5-7-8-7-o||
|-1-0-1-2-0-2--|-1-0-1-2-0-3-----|-1-0-1-2-0-3-----|-3-2-3-5-6-5--||


  2.
  Gtr I
    PM|   PM   ~~~          ~                    PM--------|
|-----------------|----------------------------|-------------|
|-----------------|----------------------------|-------------|
|-----------------|----------------------------|-------------|
|-3-2-3-4-----[8]-|-3h4p3---3--1h2p1-----------|-5-4-5-7-8-7-|
|-3-2-3-4-2-3-----|-------5----------3-2h3p2---|-5-4-5-7-8-7-|
|-1-0-1-2-0-3-----|--------------------------4-|-3-2-3-5-6-5-|
|
| Gtr II
|   PM|   PM                ~                    PM--------|
|-----------------|----------------------------|-------------|
|-----------------|----------------------------|-------------|
|--------------6--|-5h6p5---5--3h4p3-----------|-------------|
|-3-2-3-4---------|-------7----------5-4h5p4---|-5-4-5-7-8-7-|
|-3-2-3-4-2-3-----|--------------------------6-|-5-4-5-7-8-7-|
|-1-0-1-2-0-3-----|----------------------------|-3-2-3-5-6-5-|


 Pre-Verse
  Q=230
                          Gtr I
    PM----------------|     PM--------|   PM--------|
|-----------------------|-----------------------------|
|-----------------------|-----------------------------|
|-----------------------|-----------------------------|
|-7-----------------6-5-|-6-------------6-------------|
|---------------6-7-4-3-|-----------------------------|
|---5-5-5-5-5-5-4-5-----|---4-4-4-4-4-4---4-4-4-4-4-4-|
|
|                         Gtr II
| PM            PM-------------------------------------
|-----------------------|-----------------------------|
|-----------------------|-----------------------------|
|-----------------------|-----------------------------|
|-------------------6-5-|-----------------------------|
|-7-------------6-7-4-3-|-6-------------6-------------|
|-5-------------4-5-----|-4-------------4-------------|


    PM----------------|     PM--------|   PM--------|     PM----------------|
|-----------------------|-----------------------------|-----------------------|
|-----------------------|-----------------------------|-----------------------|
|-----------------------|-----------------------------|-----------------------|
|-7-----------------6-5-|-8-------------8-------------|-7-----------------6-5-|
|---------------6-7-4-3-|-----------------------------|---------------6-7-4-3-|
|---5-5-5-5-5-5-4-5-----|---6-6-6-6-6-6---6-6-6-6-6-6-|---5-5-5-5-5-5-4-5-----|
|
|-|             PM----|                                               PM----|
|-----------------------|-----------------------------|-----------------------|
|-----------------------|-----------------------------|-----------------------|
|-----------------------|-----------------------------|-----------------------|
|-------------------6-5-|-----------------------------|-------------------6-5-|
|-7-------------6-7-4-3-|-8-------------8-------------|-7-------------6-7-4-3-|
|-5-------------4-5-----|-6-------------6-------------|-5-------------4-5-----|


  Gtr I
    PM--------|   PM--------|       PM------------|      PM------------|
|-----------------------------|-------------------------------------------|
|-----------------------------|-------------------------------------------|
|-----------------------------|-------------------------------------------|
|-6-------------6-------------|--9--------------------9-------------------|
|-----------------------------|-------------------------------------------|
|---4-4-4-4-4-4---4-4-4-4-4-4-|-----7--7--7--7--7--7-----7--7--7--7--7--7-|
|
| Gtr II
| PM--------------|                 PM------------|      PM------------|
|-----------------------------|-------------------------------------------|
|-----------------------------|-------------------------------------------|
|-----------------------------|-------------------------------------------|
|-----------------------------|-12-------------------12-------------------|
|-6-------------6-------------|-------------------------------------------|
|-4-------------4-------------|----10-10-10-10-10-10----10-10-10-10-10-10-|


     PM--------|    PM--------|     PM----------------|
|-------------------------------|--------------------------|
|-------------------------------|--------------------------|
|-------------------------------|--------------------------|
|--8--------------8-------------|-7-----------------6-5----|
|-------------------------------|---------------6-7-4-3----|
|----6-6-6-6-6-6----6-6-6-6-6-6-|---5-5-5-5-5-5-4-5--------|
|
|    PM--------|    PM--------|     PM----------------|
|-------------------------------|--------------------------|
|-------------------------------|--------------------------|
|-------------------------------|--------------------------|
|-11-------------11-------------|-7-----------------6-5----|
|-------------------------------|---------------6-7-4-3----|
|----9-9-9-9-9-9----9-9-9-9-9-9-|---5-5-5-5-5-5-4-5--------|


   Verse C
   4/4
    Gtrs I, II
      PM--------|   PM--------|     PM----------------|
||------------------------------|-----------------------|
||o-----------------------------|-----------------------|
||------------------------------|-----------------------|
||--6-------------6-------------|-7-----------------6-5-|
||o-----------------------------|---------------6-7-4-3-|
||----4-4-4-4-4-4---4-4-4-4-4-4-|---5-5-5-5-5-5-4-5-----|


    PM--------|   PM--------|     PM----------------|
|-----------------------------|----------------------|
|-----------------------------|----------------------|
|-----------------------------|----------------------|
|-8-------------8-------------|-7-----------------6-5|
|-----------------------------|---------------6-7-4-3|
|---6-6-6-6-6-6---6-6-6-6-6-6-|---5-5-5-5-5-5-4-5----|


  Gtr I
    PM--------|   PM--------|     PM--------|   PM--------|
|-----------------------------|-----------------------------|
|-----------------------------|-----------------------------|
|-----------------------------|-----------------------------|
|-6-------------6-------------|-5-------------5-------------|
|-----------------------------|-----------------------------|
|---4-4-4-4-4-4---4-4-4-4-4-4-|---3-3-3-3-3-3---3-3-3-3-3-3-|
|
| Gtr II
|   PM--------|   PM--------|     PM--------|   PM--------|
|-----------------------------|-----------------------------|
|-----------------------------|-----------------------------|
|-----------------------------|-----------------------------|
|-6-------------6-------------|-9-------------9-------------|
|-----------------------------|-----------------------------|
|---4-4-4-4-4-4---4-4-4-4-4-4-|---7-7-7-7-7-7---7-7-7-7-7-7-|


                                1.
    PM--------|   PM--------|     PM----------------|
|-----------------------------|---------------------------||
|-----------------------------|--------------------------o||
|-----------------------------|---------------------------||
|-4-------------4-------------|-7-----------------6-5-----||
|-----------------------------|---------------6-7-4-3----o||
|---2-2-2-2-2-2---2-2-2-2-2-2-|---5-5-5-5-5-5-4-5---------||
|
|   PM--------|   PM--------|     PM----------------|
|-----------------------------|---------------------------||
|-----------------------------|--------------------------o||
|-----------------------------|---------------------------||
|-8-------------8-------------|-7-----------------6-5-----||
|-----------------------------|---------------6-7-4-3----o||
|---6-6-6-6-6-6---6-6-6-6-6-6-|---5-5-5-5-5-5-4-5---------||


   Outro
    2.
    Gtrs I, II
    PM----------------------------|
||-----------------|-----------------||
||o----------------|----------------o||
||-----------------|-----------------||
||--7-5-4----------|----------4-3----||
||o-5-3-2-4-5--6-5-|-2--2-4-5-2-1-4-o||
||--------2-3--4-3-|-0--0-2-3-----2--||


    Gtrs I, II
    PM-------------------------------------------------------------------
                                                                       4x
||----------------------------------|----------------------------------||
||o---------------------------------|---------------------------------o||
||----------------------------------|----------------------------------||
||----------------------------------|----------------------------------||
||o-5-5-3-3-2-2---------------------|---------------------2-2-1-1-----o||
||--------------2-2-3-3-3-3-4-4-3-3-|-0-0-0-0-0-0-2-2-3-3---------2-2--||


                       1.,2.,3.
 -----------------------------------|
                                         4x
|-||-----------------|-------------------||
|-||o----------------|------------------o||
|-||-----------------|-------------------||
|-||--7-5-4----------|----------4-3------||
|-||o-5-3-2-4-5--6-5-|-2--2-4-5-2-1-4---o||
|-||--------2-3--4-3-|-0--0-2-3-----2----||


  4.
|--------*|
|--------*|
|--------*|
|--------*|
|-2------*|
|-0------*|


Tablature Legend
----------------
 h   - hammer-on
 p   - pull-off
 b   - bend
 pb  - pre-bend
 r   - bend release (if no number after the r, then release immediately)
 /\  - slide into or out of (from/to "nowhere")
 s   - legato slide
 S   - shift slide
<n>  - natural harmonic
[n]  - artificial harmonic
n(n) - tapped harmonic
 ~   - vibrato
 tr  - trill
 T   - tap
 TP  - trem. picking
 PM  - palm muting
\n/  - tremolo bar dip; n = amount to dip
 \n  - tremolo bar down
 n/  - tremolo bar up
/n\  - tremolo bar inverted dip
 =   - hold bend; also acts as connecting device for hammers/pulls
 <>  - volume swell (louder/softer)
 x   - on rhythm slash represents muted slash
 o   - on rhythm slash represents single note slash

Misc Legend
-----------
 |  - bar
||  - double bar
||o - repeat start
o|| - repeat end
*|  - double bar (ending)
 :  - bar (freetime)
 $  - Segno
 &  - Coda
Tempo markers - <E/E./Q/Q./H/H.> = BPM(8/16=s8/s16),
where s8 = swing 8ths, s16 = swing 16ths

  Visit MetalTabs.com for more metal tablature

bottom separator

Contact Us | Privacy Policy | Disclaimer | Legal Notice
Copyright © 2001-2014 MetalTabs.com. All Rights Reserved.