top separator

Home

Forum

What's New

Submit a Tab

FAQ

Links

Contact Us

Link to Us

MuSpy.com

MetalTabs.com logo

Bands

0-9

A

B

C

D

E

F

G

H

I

J

K

L

M

N

O

P

Q

R

S

T

U

V

W

X

Y

Z

Search

What

Where
 

Equilibrium - "Met" Guitar Tab

Plain Text Version
More Equilibrium Tabs

Hits: 6340
Rated: 4.62 out of 5 (16 votes)
Updated: 2004-12-17 05:47:57

 

By:

sendpm.gif

email.gif

Important note
This tab is available online because we obtained explicit permission from Equilibrium or their label.


#----------------------------------PLEASE NOTE---------------------------------#
#This file is the author's own work and represents their interpretation of the #
#song. You may only use this file for private study, scholarship, or research. #
#Unless specified otherwise, this is NOT an official tab from the band members.#
#------------------------------------------------------------------------------#

  Visit MetalTabs.com for more metal tablature
  
Band:  Equilibrium
Album: Demo (2003)
Song:  Met

Copyright (c)  Equilibrium (Eigenproduktion) (2003)

Transcribed By: Marcus Wenzel
Email:          doombringer88@web.de

.  - palm mute           /  - slide up to
\  - slide down to       ~  - vibrato
h  - hammer on           b  - Bend
p  - pull off            Suffixes for bend
t  - tap                 f  - full bend    h - half bend
ph - pinched harmonic    q  - quarter bend t - tap bend
*  - see comment         ^  - Hold bend    r release bend
x  - Stuccatto           ~  - vibrato bend
,  - slight palm mute    () - ghost note, sustained note
"  - tremolo note        <> - Trill

Tuning D G C F A D
The whole song is played with heavy distortion



main:

D|-----------------------------|
A|-----------------------------|
F|-----------------------------| play fast
C|-444444--------222222--------| (up-down-strokes)
G|-222222-555555-000000-222222-|
D|--------333333--------000000-|

verse:

D|-----------------|
A|-----------------|
F|-----------------|
C|---4-------2-----|
G|-2-----5-0-----2-|
D|-----3-------0---|

bridge1:

D|-------------------------------------|
A|-------------------------------------|
F|-------------------------------------|
C|-4-444-44----------2-222-22----------|
G|-2-222-22-5-555-55-0-000-00-2-222-22-|
D|----------3-333-33----------0-000-00-|

bridge2:

D|-----------------|
A|-----------------|
F|-----------------|
C|-4-4-----2-2-----|
G|-2-2-5-5-0-0-2-2-|
D|-----3-3-----0-0-|

outro:

D|--------------|
A|--------------|
F|--------------|
C|-2-2-2-222222-|
G|-0-0-0-000000-|
D|--------------|



4x main     (0:11)
verse       (0:22)
main        (0:25)
verse       (0:28)
main        (0:31)
4x verse    (0:34)
4x main     (0:45)
verse       (0:56)
main        (0:59)
verse       (1:02)
main        (1:05)
4x verse    (1:07)
4x main     (1:19)
6x bridge1  (1:30)
2x bridge2  (2:00)
4x main     (2:08)
outro       (2:19)

Please rate this tab, thx! Have fun and Hail Wotan!!!

  Visit MetalTabs.com for more metal tablature

bottom separator

Contact Us | Privacy Policy | Disclaimer | Legal Notice
Copyright © 2001-2014 MetalTabs.com. All Rights Reserved.