top separator

Home

Forum

What's New

Submit a Tab

FAQ

Links

Contact Us

Link to Us

MuSpy.com

MetalTabs.com logo

Bands

0-9

A

B

C

D

E

F

G

H

I

J

K

L

M

N

O

P

Q

R

S

T

U

V

W

X

Y

Z

Search

What

Where
 

Septic Flesh - "Erebus" Guitar Tab

Plain Text Version
More Septic Flesh Tabs

Hits: 3107
Rated: 5.00 out of 5 (2 votes)
Updated: 2004-12-14 17:15:42

 

By:

Robbie Filth

sendpm.gif

email.gif

Important note
This tab is available online because we obtained explicit permission from Septic Flesh or their label.


#----------------------------------PLEASE NOTE---------------------------------#
#This file is the author's own work and represents their interpretation of the #
#song. You may only use this file for private study, scholarship, or research. #
#Unless specified otherwise, this is NOT an official tab from the band members.#
#------------------------------------------------------------------------------#

  Visit MetalTabs.com for more metal tablature
  
Band: Septic Flesh
Album: A Fallen Temple
Song: Erebus
Record Label: Holy
Tuning: Standard EADGBE

--------------------------------------------------------------
--------------------------------------------------------------
--------------------------------------------------------------
-----6-----------6-----------6-----------6-----------------2--
-2-2-4-6-6-5-2-2-4-6-6-3-2-2-4-6-6-5-2-2-4-6-6-3-3-3-5-5-5-0--
-0-0---4-4-3-0-0---4-4-1-0-0---4-4-3-0-0---4-4-1-1-1-3-3-3----
 pm.   . .   . .   . .   . .   . .   . .   . .   . .   . .

------------------------------------
------------------------------------
------------------------------------
-9-8-4-7-9-8-4-6-9-8-4-7-9-8-4------
-7-6-2-5-7-6-2-4-7-6-2-5-7-6-2------
------------------------------------

----------------------
----------------------
----------------------
----------------------
----------4030403-----
-04310431-------------X4
 pm..............

--------------------
--------------------
--------------------
--------------------
-4-3-4-7-6-4-3-7-6--
-2-1-2-5-4-2-1-5-4--

----------------------------------
----------------------------------
----------------------------------
-6-5-6-7-6-5-6-----------------7--
-4-3-4-5-4-3-4-7-4-3-4-5-4-3-4-5--
---------------5-2-1-2-3-2-1-2----
 trem pik........................

--------------------
--------------------
--------------------
--------------------
-4-3-4-7-6-4-3-7-6--
-2-1-2-5-4-2-1-5-4--

---------------------------------
---------------------------------
---------------------------------
---------------------------------
-44445-44445-44445-44445-2-3/5---
-22223-22223-22223-22223-0-1/3---
 pm... ..... ..... .....

----------------------------------
----------------------------------
----------------------------------
----------------------------------
-44445-44445-44445-44445-2-3/5-7--
-22223-22223-22223-22223-0-1/3-5--X2
 pm... ..... ..... .....

----------------------
----------------------
----------------------
----------------------
----------4030403-----
-04310431-------------X4
 pm..............

-------
-------
-------
---4---
---4---
---2---
let ring

-------------
-------------
-------------
-9\4-5-4-3---
-9\4-5-4-3---
-7\2-3-2-1---

------------------------------------
------------------------------------
------------------------------------
------------------------------------
-4444444455559999-11111111-101010---
-2222222233337777-9-9-9-9--8-8-8----
 pm..............

gtr1
-------------
-------------
-------------
---5---------
-2-3-2-5-8---
-0---0-3-6---X4 last 2 times its pm'd

gtr 2 solo
-19-18-16-15-12-14-16-18--------------------------------------------------
-------------------------15-----------------------------------------------
-------------------------vib----------------------------------------------
-----------------------------------16-17-12-10-12-17----------------------
-----------------------------14-12----------------vib-10-9-10-9-12-14-----
-------------------------------------------------------------------vib----

-------------------------------------------
---------------------------------------8---
-------------------------------------------
-----------------------------9-9-7-5-4-----
------------------------7-7----------------
-9-12-11-10-7-8-9-10-11--------------------

----------------
----------------
----------------
---10-----------
-7-8--7-10-13---
-5----5-8--11---X2
another solo during this riff

---------------------------------
---------------------------------
---------------------------------
-44445-44445-44445-44445-2-3/5---
-22223-22223-22223-22223-0-1/3---
 pm... ..... ..... .....

----------------------------------
----------------------------------
----------------------------------
----------------------------------
-44445-44445-44445-44445-2-3/5-7--
-22223-22223-22223-22223-0-1/3-5--X2
 pm... ..... ..... .....

----------------------
----------------------
----------------------
----------------------
----------4030403-----
-04310431-------------X4
 pm..............

this is a pretty accurate tab
if any one has the second solo or corrections mail them too:
septic_flesh241@hotmail.com

  Visit MetalTabs.com for more metal tablature

bottom separator

Contact Us | Privacy Policy | Disclaimer | Legal Notice
Copyright © 2001-2014 MetalTabs.com. All Rights Reserved.