top separator

Home

Forum

What's New

Submit a Tab

FAQ

Links

Contact Us

Link to Us

MetalTabs.com logo

Bands

0-9

A

B

C

D

E

F

G

H

I

J

K

L

M

N

O

P

Q

R

S

T

U

V

W

X

Y

Z

Search

What

Where
 

Septic Flesh - "Chaostar" Guitar Tab

Plain Text Version
More Septic Flesh Tabs

Hits: 3448
Rated: 4.75 out of 5 (4 votes)
Updated: 2005-09-28 08:43:21

 

By:

Robbie Filth

sendpm.gif

email.gif

Important note
This tab is available online because we obtained explicit permission from Septic Flesh or their label.


#----------------------------------PLEASE NOTE---------------------------------#
#This file is the author's own work and represents their interpretation of the #
#song. You may only use this file for private study, scholarship, or research. #
#Unless specified otherwise, this is NOT an official tab from the band members.#
#------------------------------------------------------------------------------#

  Visit MetalTabs.com for more metal tablature
  
Band: Septic Flesh
Album: Revolution DNA
Song: Chaostar
Record Label: Holy
Tuning: Standard EADGBE

gtr1
--------------
----8----7----
--------------
--------------
--------------
--------------
   trem......
keeps repeating until 26 seconds

gtr2
-------------------------------------------------
-------------------------------------------------
-------------------------------------------------
-------------------------------------------------
-2222-8888-10101010-101010-555-101010-555-10-5---
-0000-6666-8-8-8-8--8-8-8--333-8-8-8--333-8--3---

gtr2
-------------
-------------
-------------
-------------
-222-22-22---
-000-00-00---X4
 pm.......

gtr2
-------------
-------------
-------------
-------------
-333-33-33---
-000-00-00---X2
 pm.......


gtr1
-7-6-3-2-(0)-
-------------
-------------
-------------
-------------
-------------X2
let notes ring
only does (0) on last time.

-------------gtr1
----------------------------
-8-----5---8-0-3\2---3-2-5--
---8-6-------------4--------
-------------------*--------
----------------------------
----------------------------X2
*keep the 4 ringing

gtr2
-----------------------------------------------------
-----------------------------------------------------
-----------------------------------------------------
-----------------------------------------------------
-22222-222-2-444454244454-5-7-8-101010-999888-10/----
-00000-000-0-222232022232-3-5-6-8-8-8--777666-8/-----X2

gtr1
-7-6-3-2-(0)-
-------------
-------------
-------------
-------------
-------------X2
let notes ring
only does (0) on last time.

gtr1
----------------------------
-8-----5---8-0-3\2---3-2-5--
---8-6-------------4--------
-------------------*--------
----------------------------
----------------------------X2
*keep the 4 ringing

gtr2
-----------------------------------------------------
-----------------------------------------------------
-----------------------------------------------------
-----------------------------------------------------
-22222-222-2-444454244454-5-7-8-101010-999888-10/----
-00000-000-0-222232022232-3-5-6-8-8-8--777666-8/-----

gtr1
-7-6-3-2-(0)-
-------------
-------------
-------------
-------------
-------------X2
let notes ring
only does (0) on last time.

gtr1
----------------------------
-8-----5---8-0-3\2---3-2-5--
---8-6-------------4--------
-------------------*--------
----------------------------
----------------------------X2
*keep the 4 ringing

gtr2
-----------------------------------------------------
-----------------------------------------------------
-----------------------------------------------------
-----------------------------------------------------
-22222-222-2-444454244454-5-7-8-101010-999888-10/----
-00000-000-0-222232022232-3-5-6-8-8-8--777666-8/-----

both gtrs
-------------------------------------------------
-------------------------------------------------
-------------------------------------------------
-------------------------------------------------
-2222-8888-10101010-101010-555-101010-555-10-5---
-0000-6666-8-8-8-8--8-8-8--333-8-8-8--333-8--3---


gtr2
-------------
-------------
-------------
-------------
-222-22-22---
-000-00-00---X4
 pm.......


-------------
-------------
-------------
-------------
-333-33-33---
-000-00-00---X2
 pm.......

gtr1
--------------
----8----7----
--------------
--------------
--------------
--------------
   trem......


both gtrs
-----------------------------------------------------
-----------------------------------------------------
-----------------------------------------------------
-----------------------------------------------------
-22222-222-2-444454244454-5-7-8-101010-999888-10/----
-00000-000-0-222232022232-3-5-6-8-8-8--777666-8/-----gtr1X2 gtr2 X4

guitar 2 repeats this 4 times whilst gtr 1 does this:

------------------------------------------
--0-0-1-----------------------------------
-3-3-3-4-3-3-3-3-0-2-4-3------------------
----------------4-------5-4-5-8-5-8-5-----
------------------------------------------
------------------------------------------
gtr 2 does this till the song fades out

----------------------------------------------------------------------
----------------------------------------------------------------------
----------------------------------------------------------------------
----------------------------------------------------------------------
-2-222-222-222-22-4-444-444-444-44-5-555-555-555-55-8-888-888-88-88---
-0-000-000-000-00-2-222-222-222-22-3-333-333-333-33-6-666-666-66-66---
pm..................................................................
till faded out

this is pretty accurate but any comments mail them too:
septic_flesh241@hotmail.com

  Visit MetalTabs.com for more metal tablature

bottom separator

Contact Us | Privacy Policy | Disclaimer | Legal Notice
Copyright © 2001-2014 MetalTabs.com. All Rights Reserved.